Limp Bizkit - Faith Chords & Tabs

 

Faith Chords & Tabs

Limp Bizkit Chords & Tabs

Version: 5 Type: Bass Tab 0 ratings
1 star 2 stars 3 stars 4 stars 5 stars
comments

Faith Bass Tab

Song: Faith
Band: Limp Bizkit
Album: Significant Other
Tunning: BADG
Tabbed by: simpleppl@hotmail.com

----------------
| ~ - let ring |
----------------

the song is played with a 5 string bass but this is tabbed for a 4 string

  Intro
G|-----
D|-----
A|-----
B|--0--
   Bum


  Verse.1
G|--------------------------------------------------------
D|--------------------------------------------------------
A|-------------------2~---------------2~------------------
B|--------------------------------------------------------
   Wouldn't it be    nice, if I could touch your body
   But I gotta think twice, before I  give my heart away

G|-----------------------------------------------------------
D|--------------------------------------------2--------------
A|------------0~----------------------------------------2~---
B|-----------------------------------------------------------
   I know not everybody's got a               body like me
   And I know all the games you play, cause I play them too


  Pre-Chorus
G|--------------------------------------------------------------------
D|--------------------------7------------------------------2----0-----
A|----------0-------7-------------------------------------------------
B|-------------------------------------------0~-----------------------
   Oh but I need    some    time off, from   that emotion,
            Time to pick my heart up off the floor         Well that

G|------------------------------------
D|------------7-----------------------
A|-0----7-----------------------------
B|----------------------0~------------
   Love comes down, without devotion

G|---------------------------------------------------------------------
D|---------3~----------------------------------------------------------
A|---------------------------------------------------------------------
B|---------------------------------------------------------------------
   Well it takes a strong man baby but I'm, I'm showing you that door


  Chorus
G|------------------------------4--|----
D|---------------------------------|----
A|---------------------------------|-2--
B|--------------------2-2-2-2--2---|----
   Cause I gotta have faith       3x

[ Tab from: http://www.guitartabs.cc/tabs/l/limp_bizkit/faith_btab_ver_5.html ]
  Verse.2
G|----------------------------------------------------------------------------------
D|----------------------------------------------------------------------------------
A|---2--------------------------------------------------------0---------------------
B|----------------------------------------------------------------------------------
   Baby, I know you're asking me to stay, say ple ple         please don't go away
   Baby, you might mean all the words you say, can't help but think of yesterday

G|-----------------------------------------------------------------
D|--------------2--------------------------------------------------
A|----------------------------2------------------------------------
B|-----------------------------------------------------------------
   Cause you're givin' me the blues
   And          another who   tied me down to the lover boy blues


  Pre-Chorus.2
G|--------------------------------------------------
D|---------------------7-----------------------2-0--
A|----------0----7----------------------------------
B|------------------------------0~------------------
          Before this  river, becomes an ocean
   When our love comes down without devotion

G|--------------------------------------------
D|--------------------7-----------------------
A|---0--------7-------------------------------
B|-------------------------------------0------
   Before you pick my heart up off the floor

G|---------------------------------------------------------------------
D|---------3~----------------------------------------------------------
A|---------------------------------------------------------------------
B|---------------------------------------------------------------------
   Well it takes a strong man baby but I'm, I'm showing you that door


  Chorus
G|------------------------------4--|----
D|---------------------------------|----
A|---------------------------------|-2--
B|--------------------2-2-2-2--2---|----
   Cause I gotta have faith       3x


  Bridge
G|--------------------
D|--------------------
A|-----------------2--
B|--------------------
   Get the fuck up


  End (heavy)
G|------------------------4--
D|------------------------4--
A|--------------2-2-2-2--2---  repeat till end
B|--------------0-0-0-0--0---
   I gotta have faith
Comments