Limp Bizkit - Faith Chords & Tabs

 

Faith Chords & Tabs

Limp Bizkit Chords & Tabs

Version: 2 Type: Bass Tab 0 ratings
1 star 2 stars 3 stars 4 stars 5 stars
comments

Faith Bass Tab

   
Tuning, low to high  C#, F#, B, E 
intro 
E|---| 
B|-0-| 
F|---| 
C|---| 

Verse 1 
E|-----------------| 
B|-0~---0~----5-0~-| 
F|----------3~-----| 
C|-----------------| 

pre chorus 
E|-----5---------------5---------------5--------| 
B|-3-5-------5-3-----5-------5-3-----5----------| 
F|---------------3-5-------------3-5---------0--| 
C|--------0---------------0---------------0-----| 
[ Tab from: http://www.guitartabs.cc/tabs/l/limp_bizkit/faith_btab_ver_2.html ]
chorus (I use distortion on this part) 
E|--------------------| 
B|--------------------| 
F|----------------2/5-| 
C|-0--x-0-0-0--0------| 

verse #2  (play to beat of guitar, not exact # of notes played) 
E|----------------------------------------------| 
B|--------------------------5x55---------7-7/5--| 
F|-555555555555555-33333333------555555---------| 
C|----------------------------------------------| 

outro (I also use distortion on this) 
E|-----------------------| 
B|-----------------------| 
F|-----------------------| 
C|-0-0--0-0--0-0-1-1-1-1-| 

Comments