Limp Bizkit - Faith Chords & Tabs

 

Faith Chords & Tabs

Limp Bizkit Chords & Tabs

Version: 1 Type: Bass Tab 0 ratings
1 star 2 stars 3 stars 4 stars 5 stars
comments

Faith Bass Tab

                                    Faith                                       


                                                                     Limp Bizkit
Tab by Francesco 'BMCL' Miceli

Corrections,questions,insults?   G.Miceli@iol.it

     Intro                                                            
G||--------------------|-------------------|--------------------|
D||*-------------------|-------------------|--------------------|
A||*-------------------|-------------------|---------------7----|
E||---7----------------|--7----------------|--5-----------------|


                    2x   Verse                                           
--------------------||---------------------|-----------------------|
-------------------*||----------7----------|-----------------------|
-------------------*||------7--------------|---------------7h9-5h7-|
--7-----------------||--5------------------|--7--------------------|


                                                                   
---------------------|----------------------|---------------------|
----------7----------|----------------------|----------7----------|
------7--------------|---------------7h9-5--|------7--------------|
--5------------------|--7-------------------|--5------------------|

[ Tab from: http://www.guitartabs.cc/tabs/l/limp_bizkit/faith_btab.html ]
                                                           
-------------------|-------------------|------------------|
-------------------|-------------------|------------------|
-------------------|-------------------|------------------|
--7----------------|--2----------------|------------------|


  Chorus                                                              
 |-------------------------------|-------------------------------|
 |-----------------------10---10-|-----------------------10---10-|
 |-------------------------------|-------------------------------|
 |--7---x-7---x-7---x---8h--8h---|--7---x-7---x-7---x--8h---8h---|


                                                         
-------------------------------|------------------------|
-----------------------10---10-|------------------------|
-------------------------------|------------------------|
--7---x-7---x-7---x--8h---8h---|--7---x-7---x-7---------|


   Bridge                                                     
||----------------------------|----------------------------|
||--9---x-9---x-9---x-9-9-9-9-|--9---x-9---x-9---x-9-9-9-9-|
||------x-----x-----x---------|------x-----x-----x---------|
||--7---x-7---x-7---x-7-7-7-7-|--7---x-7---x-7---x-7-7-7-7-|


                                                         2x  
----------------------------|----------------------------||
--7---x-7---x-7---x-7-7-7-7-|--9---x-9---x-9---x-9-9-9-9-||
------x-----x-----x---------|------x-----x-----x---------||
--5---x-5---x-5---x-5-5-5-5-|--7---x-7---x-7---x-7-7-7-7-||


And after:
Verse
Chorus ad Lib.




Comments