Limp Bizkit - Eat You Alive Chords & Tabs

 

Eat You Alive Chords & Tabs

Limp Bizkit Chords & Tabs

Version: 7 Type: Tab 0 ratings
1 star 2 stars 3 stars 4 stars 5 stars
comments

Eat You Alive Tab

Song: Eat you alive
Band: Limp Bizkit

Tabbed by: Erling

Intro

----------------------------------------------
----------------------------------------------
----------------------------------------------
---2222-303---2222-303---2222-303------------- x4
---2222-303---2222-303---2222-303-------------
----------------------------------------------

Chorus

----------------------------------------------
----------------------------------------------
----------------------------------------------
---2222-303---2222-303---2222-303------------- x4
---2222-303---2222-303---2222-303-------------
---2222-303---2222-303---2222-303-------------

Verse

---------------------------------------------
---------------------------------------------
--------------------------------------------- x6
---------------------------------------------
---------------------------------------------
---1-x-x-x-x-x-x-x-x-x-x-x-x-x-x-x-x-x-x-x-x-

Chorus

---------------------------------------------
---------------------------------------------
---------------------------------------------
---2222-303---2222-303---2222-303------------ x4
---2222-303---2222-303---2222-303------------
---2222-303---2222-303---2222-303------------

Verse

---------------------------------------------
---------------------------------------------
--------------------------------------------- x6
---------------------------------------------
---------------------------------------------
---1-x-x-x-x-x-x-x-x-x-x-x-x-x-x-x-x-x-x-x-x-
[ Tab from: http://www.guitartabs.cc/tabs/l/limp_bizkit/eat_you_alive_tab_ver_7.html ]
Interlude 1

---------------------------------------------
---------------------------------------------
--------------------------------------------- x3
---99999666669999966666844444444444444-------
---99999666669999966666844444444444444-------
---77777444447777744444622222222222222-------

Interlude 2

----------------------7--------------------7---
------------------6-------5------------6-------
--------------6--------------------6----------- x3
----------6--------------------6---------------
-----------------------------------------------
-----------------------------------------------

Bridge( play slow and smooth )

-----------------------------------------------
-----------------------------------------------
-----------------------------------------------
----------------------------------------------- x4
----3333-5555-4444-6666-3333-5555-4444-6666----
----3333-5555-4444-6666-3333-5555-4444-6666----

Pre outro

------------------------------------------------
------------------------------------------------
------------------------------------------------
---2222-303---2222-303---2222-303---2222-303---- x4
---2222-303---2222-303---2222-303---2222-303----
------------------------------------------------

Outro

------------------------------------------------
------------------------------------------------
------------------------------------------------
---2222-303---2222-303---2222-303---2222-303---- x6
---2222-303---2222-303---2222-303---2222-303----
---2222-303---2222-303---2222-303---2222-303----
Comments