Limp Bizkit - Eat You Alive Chords & Tabs

 

Eat You Alive Chords & Tabs

Limp Bizkit Chords & Tabs

Version: 5 Type: Tab 0 ratings
1 star 2 stars 3 stars 4 stars 5 stars
comments

Eat You Alive Tab

From their new c.d. Results May Very. This is a great song.

Intro
-----------------------------------------------------------
-----------------------------------------------------------
-----------------------------------------------------------
--0-2-2-2-3-0-3--0-2-2-2-3-0-3--0-2-2-2-3-0-3--0-2-2-2-3-0-3
--0-2-2-2-3-0-3--0-2-2-2-3-0-3--0-2-2-2-3-0-3--0-2-2-2-3-0-3
--0-2-2-2--------0-2-2-2--------0-2-2-2--------0-2-2-2------

Chorus
Lots of heavy distortion
-------------------------------------------------------------
-------------------------------------------------------------
-------------------------------------------------------------
--0-2-2-2-3-0-3--0-2-2-2-3-0-3--0-2-2-2-3-0-3--0-2-2-2-3-0-3-
--0-2-2-2-3-0-3--0-2-2-2-3-0-3--0-2-2-2-3-0-3--0-2-2-2-3-0-3-
--0-2-2-2-3-0-3--0-2-2-2-3-0-3--0-2-2-2-3-0-3--0-2-2-2-3-0-3-

Verse w/pm
--------------------------------------------------------------
--------------------------------------------------------------
--------------------------------------------------------------
--0-2-2-2-3-0-2--0-2-2-2-----0-2-2-2-3-0-2--0-2-2-2-----------
--0-2-2-2-3-0-2--0-2-2-2-----0-2-2-2-3-0-2--0-2-2-2-----------
--0-2-2-2-3-0-2--0-2-2-2-----0-2-2-2-3-0-2--0-2-2-2-----------

Pre Chorus
--------------------------------------------------------------------
--------------------------------------------------------------------
--9-9-9-9-9~-9-9---9-9-9-9-9~-9-9---9-9-9-9-9~-9-9---9-9-9-9-9~-9-9-
--x-x-x-x-x--x-x---x-x-x-x-x--x-x---x-x-x-x-x--x-x---x-x-x-x-x--x-x-
--7-7-7-7-7~-7-7---7-7-7-7-7~-7-7---7-7-7-7-7~-7-7---7-7-7-7-7~-7-7-

Chorus 2
----------------------------------------------------------------------
----------------------------------------------------------------------
--------------------9-9-9---------------------------------------------
--5-5-5-5-5-5-7-7-7-x-x-x---------------------------------------------
--3-3-3-3-3-3-5-5-5-7-7-7---2-----------------------------------------
----------------------------2-----------------------------------------

Right about here there is a bass interlude.
[ Tab from: http://www.guitartabs.cc/tabs/l/limp_bizkit/eat_you_alive_tab_ver_5.html ]
Interlude (guitar) this part is clean with Freds chorus
-----------------------------------------------------------------------
--------13-----------13-----------13-----------13----------------------
-----12---12------12-----------12-----12----12-------------------------
--10------------------------------------------------10-12--------------
-------------13------------12------------13----------------------------
-----------------------------------------------------------------------

Interlude (guitar) This part is done with a phaser and distortion.
------------------------------------------------------------------------
-------13----------------13-------------13-----------------13-----------
----12-----------------12-------------12-----------------12-------------
--10-------10-10h12-10-------10-12-10--------10-10h12-10-------10-12----
------------------------------------------------------------------------

Chorus 2
----------------------------------------------------------------------
----------------------------------------------------------------------
--------------------9-9-9---------------------------------------------
--5-5-5-5-5-5-7-7-7-x-x-x---------------------------------------------
--3-3-3-3-3-3-5-5-5-7-7-7---2-2-2-2-2-2-2-2-2-2-2-2-------------------
----------------------------2-2-2-2-2-2-2-2-2-2-2-2-------------------


Fill 1
----------------------------------------------------------------------
----------------------------------------------------------------------
--------------------9-9-9---------------------------------------------
--5-5-5-5-5-5-7-7-7-x-x-x---------------------------------------------
--3-3-3-3-3-3-5-5-5-7-7-7---------------------------------------------
----------------------------------------------------------------------

Fill 2
----------------------------------------------------------------------
----------------------------------------------------------------------
----------------------------------------------------------------------
--0-2-2-2-3-0-3--0-2-2-2-3--------------------------------------------
--0-2-2-2-3-0-3--0-2-2-2-3--------------------------------------------
--0-2-2-2--------0-2-2-2----------------------------------------------

Final This is the ending riff
----------------------------------------------------------------------
----------------------------------------------------------------------
----------------------------------------------------------------------
--0-2-2-2-3-0-3--0-2-2-2-3-0-3--2-------------------------------------
--0-2-2-2-3-0-3--0-2-2-2-3-0-3--2-------------------------------------
--0-2-2-2-3-0-3--0-2-2-2-3-0-3--2-------------------------------------
Comments