Limp Bizkit - Eat You Alive Chords & Tabs

 

Eat You Alive Chords & Tabs

Limp Bizkit Chords & Tabs

Version: 4 Type: Tab 0 ratings
1 star 2 stars 3 stars 4 stars 5 stars
comments

Eat You Alive Tab

   
-----------------------------------------------------------------------------
			     EAT YOU ALIVE  Limp Bizkit
-----------------------------------------------------------------------------

Tabbed by: Luis Munoz
Email: LamaGua@aol.com

Why bother going all the way down to drop C?  Use this

Tuning:  step down and drop D (low to high: Db Ab Db Gb Bb eb)

INTRO (just Guitar 1)
eb|-----------------------------|----------------------|
Bb|-----------------------------|----------------------|
Gb|-----------------------3X----|----------------------|
Db|--0h2-2-2--3--0--3-----------|--0h2-2-2--3--xxxx----|
Ab|--0h2-2-2--3--0--3-----------|--0h2-2-2--3--xxxx----|
Db|--0h2-2-2--3--0--3-----------|--0h2-2-2--3--xxxx----|

INTRO (Guitars 1 & 2 with drums and everything)
eb|-----------------------------|
Bb|-----------------------------|
Gb|-----------------------4X----|
Db|--0h2-2-2--3--0--3-----------|
Ab|--0h2-2-2--3--0--3-----------|
Db|--0h2-2-2--3--0--3-----------|

VERSE 1 (palm muted for Guitar 1)
Guitar 1
eb|--------------------------------------------|
Bb|--------------------------------------------|
Gb|--------------------------------------8X----|
Db|--0h2-2-2--3--0--3-----0h2-2-2--3x----------|
Ab|--0h2-2-2--3--0--3-----0h2-2-2--3x----------|
Db|--0h2-2-2--3--0--3-----0h2-2-2--3x----------|

Guitar 2 (after first 4X of Guitar 1)
eb|------------------------------|
Bb|------------------------------|
Gb|--7-/9-9-9-/10-\9-9-----4X----|
Db|--x-/x-x-x-/-x-\x-x-----------|
Ab|--5-/7-7-7-/-8-\7-7-----------|
Db|------------------------------|

CHORUS
eb|-----------------------------|
Bb|-----------------------------|
Gb|-----------------------8X----|
Db|--0h2-2-2--3--0--3-----------|
Ab|--0h2-2-2--3--0--3-----------|
Db|--0h2-2-2--3--0--3-----------|


VERSE 2 (palm muted for Guitar 1)
Guitar 1
eb|--------------------------------------------|
Bb|--------------------------------------------|
Gb|--------------------------------------8X----|
Db|--0h2-2-2--3--0--3-----0h2-2-2--3x----------|
Ab|--0h2-2-2--3--0--3-----0h2-2-2--3x----------|
Db|--0h2-2-2--3--0--3-----0h2-2-2--3x----------|




Guitar 2 (after first 4X of Guitar 1)
eb|------------------------------|
Bb|------------------------------|
Gb|--7-/9-9-9-/10-\9-9-----4X----|
Db|--x-/x-x-x-/-x-\x-x-----------|
Ab|--5-/7-7-7-/-8-\7-7-----------|
Db|------------------------------|

CHORUS
eb|-----------------------------|
Bb|-----------------------------|
Gb|-----------------------8X----|
Db|--0h2-2-2--3--0--3-----------|
Ab|--0h2-2-2--3--0--3-----------|
Db|--0h2-2-2--3--0--3-----------|
[ Tab from: http://www.guitartabs.cc/tabs/l/limp_bizkit/eat_you_alive_tab_ver_4.html ]
AFTER-CHORUS 1 (Fred says Im sorry....)
eb|------------------------------------------------------------|
Bb|------------------------------------------------------------|
Gb|--55555555-/7777-/9999--------------------------------4X----|
Db|--55555555-/7777-/9999---2-2-22--2222--2-2-22--2222---------|
Ab|--33333333-/5555-/7777---2-2-22--2222--2-2-22--2222---------|
Db|-------------------------2-2-22--2222--2-2-22--2222---------|

BRIDGE
Guitar 1
eb|----------------------------------------------------|
Bb|----------------------------------------------------|
Gb|----------------------------------------------8X----|
Db|------5---5-----5---5-----5---5-----5-5-3-----------|
Ab|--3-3---3---1-1---1---0-0---0---1-1-----------------|
Db|----------------------------------------------------|

Guitar 2 (comes in at the start of the second cycle of Guitar 1, clean for the
first 3 cycles, then with distortion for the last 4 cycles)
eb|----------------------------------------------------------------|
Bb|--------13----------13-------13----------13---------------------|
Gb|-----12----12----12-------12----12----12----12------------6X----|
Db|--10----------10-------10----------10----------12\--------------|
Ab|----------------------------------------------------------------|
Db|----------------------------------------------------------------|


eb|----------------------------------------------------|
Bb|--------13----------13-------13---------------------|
Gb|-----12----12----12-------12----12------------------|
Db|--10----------10-------10----------10-(let ring)----|
Ab|----------------------------------------------------|
Db|----------------------------------------------------|



AFTER-CHORUS 2 (Fred says Im sorry....)
eb|------------------------------------------------------------|
Bb|------------------------------------------------------------|
Gb|--55555555-/7777-/9999--------------------------------3X----|
Db|--55555555-/7777-/9999---2-2-22--2222--2-2-22--2222---------|
Ab|--33333333-/5555-/7777---2-2-22--2222--2-2-22--2222---------|
Db|-------------------------2-2-22--2222--2-2-22--2222---------|


eb|-------------------------|------------------------------|
Bb|-------------------------|------------------------------|
Gb|--55555555-/7777-/9999---|------------------------3X----|
Db|--55555555-/7777-/9999---|--0h2-2-2--3--0--3------------|
Ab|--33333333-/5555-/7777---|--0h2-2-2--3--0--3------------|
Db|-------------------------|--0h2-2-2--3--0--3------------|

OUTRO
eb|-----------------------------|
Bb|-----------------------------|
Gb|-----------------------8X----|
Db|--0h2-2-2--3--0--3-----------|
Ab|--0h2-2-2--3--0--3-----------|
Db|--0h2-2-2--3--0--3-----------|


eb|----------------------------------------|
Bb|----------------------------------------|
Gb|----------------------------------------|
Db|--2-------------------------------------|
Ab|--2-(let all three ring if you want)----|
Db|--2-------------------------------------|


| /  slide up
| \  slide down
| h  hammer-on
| p  pull-off
| ~  vibrato
| x  Mute note
=============================================================================
Comments