Limp Bizkit - Eat You Alive Chords & Tabs

 

Eat You Alive Chords & Tabs

Limp Bizkit Chords & Tabs

Version: 1 Type: Tab 0 ratings
1 star 2 stars 3 stars 4 stars 5 stars
comments

Eat You Alive Tab

hey everyone...this is a good song and i got it perfect here it is...
intro/chorus
---------------------------
---------------------------
---------------------------
--0-------------22-3-0-3--repeat 
--0 (hammer on>)22-3-0-3--
--0/-------------00-3-0-3--
[ Tab from: http://www.guitartabs.cc/tabs/l/limp_bizkit/eat_you_alive_tab.html ]
verse
-----------------------------
-----------------------------
-----------------------------
--0---222-3-0-3-0---2-2-0-2
--0 h-222-3-0-3-0 h-2-2-0-2
--0/---000-3-0-3-0/---0-0-0-0
bridge
----------------------------------------------------repeat this-------
----------------------------------------------------4 times, then back 
-----------------------------------------------------the chorus--------
-5-5-5-5-5-5-5-5-7-7-7-7-7-7-7-9-9-9-9-9-------------------------------
-5-5-5-5-5-5-5-5-7-7-7-7-7-7-7-9-9-9-9-9-2-2-2-2-2-2-2-2-2-2-----------
-3-3-3-3-3-3-3-3-5-5-5-5-5-5-5-7-7-7-7-7-2-2-2-2-2-2-2-2-2-2-----------
-----------------------------------------0-0-0-0-0-0-0-0-0-0-----------
the quiet thing in the song, i dont no wat it is called...
-------------------
------13-----------repeat alot of times lol
----12--12---------jsut listen to the song
--10------12-10----
-------------------
-------------------
and then jsut end with the verse and uve got the song! andy questions
or comments, email me at yankees0912@aol.com 
Comments