Limp Bizkit - Eat You Alive Chords & Tabs

 

Eat You Alive Chords & Tabs

Limp Bizkit Chords & Tabs

Version: 1 Type: Bass Tab 0 ratings
1 star 2 stars 3 stars 4 stars 5 stars
comments

Eat You Alive Bass Tab

                   heres eat you alive on 4string

            repeat 4x                intro/chorus
g--------------|
d--------------|
a4-6-6-4-7-4-7-|
d--------------|

                        verse 8x

[ Tab from: http://www.guitartabs.cc/tabs/l/limp_bizkit/eat_you_alive_btab.html ]
g--------------------|
d--------------------|
a4-6-6-4-7-4-7-4-6-6-|
d--------------------|
                       inturlude part 1
g---------------------------------------|
d---------------------------------------|
a222222222222-4444-6666-666666666666666-|
d---------------------------------------|
                        inturtude part 2

g-----11--11------11--11---------11--------------11--9-|
d9-9-9--9---7-7-7---7-----------11--11-----7-7-7---7---|
a-----------------------11-11-11-----------------------|
d------------------------------------------------------|

-
Comments