Limp Bizkit - Down Another Day Chords & Tabs

 

Down Another Day Chords & Tabs

Limp Bizkit Chords & Tabs

Version: 2 Type: Tab 0 ratings
1 star 2 stars 3 stars 4 stars 5 stars
comments

Down Another Day Tab

   
Song: Down Another Day
Band: Limp Bizkit
Album: Results May Vary


Tuning Down 1/2 Step (Eb, Ab, Db, Gb, Bb, Eb)
This tab is 200% correct

                         "Guitar One"

Intro:
|-----------------------------------------------------------------|
|-----------------------------------------------------------------|
|-----------------------------------------------------------------|
|-------------------------10--10----------------------------------| x2
|----5----8----10----12--8---8------5----8----10-----12--12h13-12-|
|--3----6----8-----10-------------3----6----8-----10--------------|

Verse 1: "In this mirror..."
|-----------------------|
|-----------------------|
|-----------------------|
|-----------------------| x4
|----5----8----10----12-|
|--3----6----8-----10---|

Pre-Chorus 1: "Down another day..."
|-----------------------------------------------------------------|
|-----------------------------------------------------------------|
|-----------------------------------------------------------------|
|--------------------------10-------------------------------------| x1
|----5----8----10----12--8----8-----5----8----10-----12--12h13-12-|
|--3----6----8-----10-------------3----6----8-----10--------------|

Verse 2: "Oh, the winter..."
|-----------------------|
|-----------------------|
|-----------------------|
|-----------------------| x4
|----5----8----10----12-|
|--3----6----8-----10---|

Pre-Chorus: "Down another day..."
|-----------------------------------------------------------------|
|-----------------------------------------------------------------|
|-----------------------------------------------------------------|
|--------------------------10-------------------------------------| x1
|----5----8----10----12--8----8-----5----8----10-----12--12h13-12-|
|--3----6----8-----10-------------3----6----8-----10--------------|

Chorus:  "Don't have to bore you with details..."
|---------------------|
|---------------------|
|-----------0---------|
|------------------10-| x16
|---10---10---10------|
|-8----8---------8----|

Verse 3: "In this mirror..."
|-----------------------|
|-----------------------|
|-----------------------|
|-----------------------| x4
|----5----8----10----12-|
|--3----6----8-----10---|

Pre-Chorus: "Down another day..."
|-----------------------------------------------------------------|
|-----------------------------------------------------------------|
|-----------------------------------------------------------------|
|--------------------------10-------------------------------------| x1
|----5----8----10----12--8----8-----5----8----10-----12--12h13-12-|
|--3----6----8-----10-------------3----6----8-----10--------------|

Chorus:  "Don't have to bore you with details..."
|---------------------|
|---------------------|
|-----------0---------|
|------------------10-| x16
|---10---10---10------|
|-8----8---------8----|

Bridge: "I keep sayin' goodbye..."
|-----------|
|-----------|
|-----------|
|-5-x64-----|
|-----------|
|-----------|
[ Tab from: http://www.guitartabs.cc/tabs/l/limp_bizkit/down_another_day_tab_ver_2.html ]
|----------------------------------------------------------------------|
|----------------------------------------------------------------------|
|-5-5h7-7-7-7-7-7-7-8-8---------------8-----8-----8--------------------|
|-5-5---5-5-5-5-5-5-5-5-5-5-5-5-5-5-5-5-5-5-5-5-5-5-5-5-5-5-5-5-5-5-5--|
|----------------------------------------------------------------------|
|----------------------------------------------------------------------|

|----------------------------------------------------------------------|
|---------------------6-----6-6-------6-----6-6-------6----------------|
|-5-5h7-7-7-7-7-7-7-8-7---------------7---------------7----------------|
|-5-5---5-5-5-5-5-5-5-5-5-5-5-5-5-5-5-5-5-5-5-5-5-5-5-5-5-5-5-5-5-5-5--|
|----------------------------------------------------------------------|
|----------------------------------------------------------------------|

Chorus:  "Don't have to bore you with details..."
|---------------------|
|---------------------|
|-----------0---------|
|------------------10-| x16
|---10---10---10------|
|-8----8---------8----|

Outro:  "Down another day..."
|---------------------          ---|
|---------------------          ---|
|-----------0---------          ---|
|------------------10- x7       ---|
|---10---10---10------          ---|
|-8----8---------8----   End on -8-|

                          "Guitar Two"
Verses and Pre-Choruses(Comes in after intro)
|--3--5--6--13--13----13---5--3--6--5----10----10------|
|-------------------------------------10----10----10---|
|------------------12----12----------------------------|
|------------------------------------------------------| Repeat Until Chorus
|------------------------------------------------------|
|------------------------------------------------------|

Chorus and Outro:
|-8---10-8---10-8---10-8--3---8---10-8---10-8---10-8--3---|
|---------------------------------------------------------|
|---------------------------------------------------------|
|---------------------------------------------------------|
|---------------------------------------------------------|
|---------------------------------------------------------|

|-15---16-15---16-15---16--11--10---15---16-15---16-15---16--11--10--8-|
|----------------------------------------------------------------------|
|----------------------------------------------------------------------|
|----------------------------------------------------------------------|
|----------------------------------------------------------------------|
|----------------------------------------------------------------------|

                             "Guitar 3"

Verse 3:
|-6/5---3---5---3-----|
|---------------------|
|---------------------|
|---------------------|
|---------------------|
|---------------------|

Outro:
|-8---10-6--8---10-6--8---10-6--8---10-6-|
|----------------------------------------|
|----------------------------------------|
|----------------------------------------|
|----------------------------------------|
|----------------------------------------|

Enjoy :)
If you think you see something wrong my email is
zman919191@yahoo.com
Comments