Limp Bizkit - Down Another Day Chords & Tabs

 

Down Another Day Chords & Tabs

Limp Bizkit Chords & Tabs

Version: 1 Type: Tab 0 ratings
1 star 2 stars 3 stars 4 stars 5 stars
comments

Down Another Day Tab

   
Song: Down another day
Band: Limp Bizkit
Album: Results may vary
Guitarist: Mike Smith

Tabbed by: nasty_santa409
tuning down 1/2 step (Eb, Ab, Db, Gb, Bb, Eb)
this tab is 100% correct

***Intro - 0:00
|----------------------------------------------------------------------------
|----------------------------------------------------------------------------
|----------------------------------------------------------------------------
|-------------------------9---9----------------------------------------------
|----4----7----9----11--7---7-----4----7----9----11--11h12-11----------------
|--2----5----7----9-------------2----5----7----9-----------------------------

***Verse/Chorus - 0:15
|--2--4--5---12-12---2--4--5-----9---9---------------------------------------
|------------------------------7---7-----------------------------------------
|----------------------------------------------------------------------------
|----------------------------------------------------------------------------
|----------------------------------------------------------------------------
|----------------------------------------------------------------------------

***Interlude 1 - 1:05
|----------------------------------------------------------------------------
|----------------------------------------------------------------------------
|---------0------------------0------------------0------------------0---------
|----4-------4---4------4-------4---4------4-------4---4------4-------4---4--
|--2---2-------2------2---2-------2------2---2-------2------2---2-------2----
|----------------------------------------------------------------------------
[ Tab from: http://www.guitartabs.cc/tabs/l/limp_bizkit/down_another_day_tab.html ]
***Verse/Chorus - 1:42
|--2--4--5---12-12---2--4--5-----9---9---------------------------------------
|------------------------------7---7-----------------------------------------
|----------------------------------------------------------------------------
|----------------------------------------------------------------------------
|----------------------------------------------------------------------------
|----------------------------------------------------------------------------

***Interlude 1 - 2:05
|----------------------------------------------------------------------------
|----------------------------------------------------------------------------
|---------0------------------0------------------0------------------0---------
|----4-------4---4------4-------4---4------4-------4---4------4-------4---4--
|--2---2-------2------2---2-------2------2---2-------2------2---2-------2----
|----------------------------------------------------------------------------

***Interlude 2 - 2:37
|----------------------------------------------------------------------------
|----------------------------------------------------------------------------
|----------------------------------------------------------------------------
|--7-7-7-7-7-7-7-7-7-7-7-7-7-7-7-7-------------------------------------------
|----------------------------------------------------------------------------
|----------------------------------------------------------------------------

***Interlude 1 - 3:11
|----------------------------------------------------------------------------
|----------------------------------------------------------------------------
|---------0------------------0------------------0------------------0---------
|----4-------4---4------4-------4---4------4-------4---4------4-------4---4--
|--2---2-------2------2---2-------2------2---2-------2------2---2-------2----
|----------------------------------------------------------------------------

well, enjoy.
:p
Comments