Limp Bizkit - Down Another Day Chords & Tabs

 

Down Another Day Chords & Tabs

Limp Bizkit Chords & Tabs

Version: 1 Type: Bass Tab 0 ratings
1 star 2 stars 3 stars 4 stars 5 stars
comments

Down Another Day Bass Tab

-------------------------------------------------------------------------------
			     Down Another Day - Limp Bizkit
-------------------------------------------------------------------------------

Tabbed By : WhItE_ChOcOlAtE
e-mail: CA_90011@hotmail.com

Tuning:Standard (EADG)

Intro:

G|---6---9---11----13----14----14-------------|
D|-4---7---9----11----11----11----------------|
A|--------------------------------------------|
E|--------------------------------------------|

G|---6---9---11----13-13-14-13----------------|
D|-4---7---9----11----------------------------|
A|--------------------------------------------|
E|--------------------------------------------|
                 (2 times)

Verse:

G|---6----------------------------------------|
D|-4---4/7--9-9---11--------------------------|
A|--------------------------------------------|
E|--------------------------------------------|

Pre-Chorus:
[ Tab from: http://www.guitartabs.cc/tabs/l/limp_bizkit/down_another_day_btab.html ]
G|---6---------------9------------------------|
D|-4---4/7--9-9---11--------------------------|
A|--------------------------------------------|
E|--------------------------------------------|

G|---6----------------------------------------|
D|-4---4/7--9-9---11--------------------------|
A|--------------------------------------------|
E|--------------------------------------------|

Chorus:

G|--------------------------------------------|
D|----7---9---7-----7---9---7-----------------|
A|-9-------------9-------------9--------------|
E|--------------------------------------------|

Bridge:

G|--------------------------------------------|
D|-----------777777777--99999999999999999999--|
A|-999999999----------------------------------|
E|--------------------------------------------|


And that's it, Have fun =)
Any corrections or suggestions, please mail me CA_90011@hotmail.com
===============================================================================
Comments