Limp Bizkit - Dont Go Off Wandering Chords & Tabs

 

Dont Go Off Wandering Chords & Tabs

Limp Bizkit Chords & Tabs

Version: 1 Type: Tab 0 ratings
1 star 2 stars 3 stars 4 stars 5 stars
comments

Dont Go Off Wandering Tab

   
Limp Bizkit-Significant Other
SONG: Don't Go Off Wandering

Intro

Just rubb your fingers up against the steel strings mostly, just a little bit 
on the bass strings.

C||--8--8--8--8--------||
G||--9--9--9--9-2-2-22-||
D||--9--9--9--9-2-2-22-||
A||--7--7--7--7-0-0-00-||

Verse
"Everyday is nothing but stress to me..."
a||----------------------------------------------||
F||----------------------------------------------||
C||-----------------------------------7-7-7-7h8--||
G||-----8-8--6-8-6-3--3-3-1-3--------------------||
D||--6------------------------3-3-1-3------------||
A||----------------------------------------------||
[ Tab from: http://www.guitartabs.cc/tabs/l/limp_bizkit/dont_go_off_wandering_tab.html ]
Chorus
"You don't feel nothing at all..."
G||--8-8-88-8-8--4-4-44-4-4--||
D||--8-8-88-8-8--4-4-44-4-4--||
A||--6-6-66-6-6--2-2-22-2-2--||

Fill
"Do you think any less of me now that i'm gone..."
C||--8-8-8-8-8-8--8^--9-9-9-9-9-9--9^--||
G||--8-8-8-8-8-8------9-9-9-9-9-9------||
D||--6-6-6-6-6-6------7-7-7-7-7-7------||
A||------------------------------------||

Riff A
"You need nothing from me now..."
G||--8-----7------||
D||------------5--||
A||---------------||

Riff B
"You said..."
G||-----8-----7-----11-----10--||
D||--6-----5-----9------8------||
A||----------------------------||

G||-----8------------11---------||
D||--6------------9-------------||
A||-------xx-xxx--------xx-xxx--||
Comments