Limp Bizkit - Crack Addict Chords & Tabs

 

Crack Addict Chords & Tabs

Limp Bizkit Chords & Tabs

Version: 1 Type: Tab 0 ratings
1 star 2 stars 3 stars 4 stars 5 stars
comments

Crack Addict Tab

Song Title: Crack Addict
Artist: Limp Bizkit
Tab Made By: Mike Rejdych

Eb| ----------------------------------------------------------------------|
Bb| ----------------------------------------------------------------------|
Gb| ----------------------------------------------------------------------|
Db| ------2---------------------------------------------------------------|	(4x)
Ab| ------2---------------------------------------------------------------|
Db| ------2---------------------------------------------------------------|
			(Let Echo)

Eb| ---------------|
Bb| ---------------|
Gb| ---------------|
Db| ------2--1--0--|      (2x)
Ab| ------2--1--0--|
Db| ------2--1--0--|

Eb| --------------------------------------------------------------------------|
Bb| --------------------------------------------------------------------------|
Gb| --------------------------------------------------------------------------|
Db| --2-----2-----2-2------7^-------------------------------------------------|
Ab| --2-----2-----2-2------7^-------------------------------------------------|
Db| --2-----2-----2-2------7^-------------------------------------------------|

Eb| ---------------------------------------------------------------------------|
Bb| ---------------------------------------------------------------------------|
Gb| ---------------------------------------------------------------------------|
Db| --2-----2-----2-2----2-1-x--2-1-x------------------------------------------|
Ab| --2-----2-----2-2----2-1-x--2-1-x------------------------------------------|
Db| --2-----2-----2-2----2-1-x--2-1-x------------------------------------------|

Eb| --------------------------------------------------------------------------|
Bb| --------------------------------------------------------------------------|
Gb| --------------------------------------------------------------------------|
Db| --2-----2-----2-2------7^-------------------------------------------------|
Ab| --2-----2-----2-2------7^-------------------------------------------------|
Db| --2-----2-----2-2------7^-------------------------------------------------|
[ Tab from: http://www.guitartabs.cc/tabs/l/limp_bizkit/crack_addict_tab.html ]
Eb| ---------------------------------------------------------------------------|
Bb| ---------------------------------------------------------------------------|
Gb| ---------------------------------------------------------------------------|
Db| --2-----2-----2-2----2-1-0----2-1-0----------------------------------------|
Ab| --2-----2-----2-2----2-1-0----2-1-0----------------------------------------|
Db| --2-----2-----2-2----2-1-0----2-1-0----------------------------------------|
			(Let Last Ď0í Echo)

Eb| ------------------------------------------------------------------------------|
Bb| ------------------------------------------------------------------------------|
Gb| ------------------------------------------------------------------------------|
Db| --3-4---0----5----0---5-4-----------------------------------------------------|
Ab| --3-4---0----5----0---5-4-----------------------------------------------------|
Db| --3-4---0----5----0---5-4-----------------------------------------------------|

Eb| ------------------------------------------------------------------------|
Bb| ------------------------------------------------------------------------|
Gb| --5(8x)----0(1x)--------------------------------------------------------|
Db| --5(8x)----0(1x)--------------------------------------------------------|    (4x)
Ab| ------------------------------------------------------------------------|
Db| ------------------------------------------------------------------------|

Eb| -----------------------------|
Bb| -----------------------------|
Gb| -----------------------------|
Db| --2-1-0-2-1-0(8x)-------2-2--|    (2x)
Ab| --2-1-0-2-1-0(8x)-------2-2--|
Db| --2-1-0-2-1-0(8x)-------2-2--|

Eb| ------------------------------------------------------------------------------|
Bb| ------------------------------------------------------------------------------|
Gb| ------------------------------------------------------------------------------|
Db| --3-4---0----5----0---5-4-----------------------------------------------------|
Ab| --3-4---0----5----0---5-4-----------------------------------------------------|
Db| --3-4---0----5----0---5-4-----------------------------------------------------|

Eb| ----------------------------------------------------------------------------------|
Bb| ----------------------------------------------------------------------------------|
Gb| ----------------------------------------------------------------------------------|
Db| --5(8x)-------2(15x)--------------------------------------------------------------|
Ab| --5(8x)-------2(15x)--------------------------------------------------------------|
Db| --5(8x)-------2(15x)--------------------------------------------------------------|


					(END)

(SORRY IF ITíS WRONGLY TABBED, ITS MY FIRST!.. Thanks!)
Comments