Limp Bizkit - Counterfeit Chords & Tabs

 

Counterfeit Chords & Tabs

Limp Bizkit Chords & Tabs

Version: 1 Type: Tab 0 ratings
1 star 2 stars 3 stars 4 stars 5 stars
comments

Counterfeit Tab

   
tune from low to high 
C# F# B E G# C#
I,m not sure if this is exactly correct but im about 80% sure this is right
intro
C#--------------------------------
G#--------------------------------
E---------------------------------
B---------------------------------
F#--------------------------------
C#-1-0--1-0--1-0--1-0--1-0--1-0---

chorus
C#-------------------------------------------
G#-------------------------------------------
E--------------------------------------------
B----------------------5---------------------
F#-------------------3---3-------------------
C#-1-0-0--0-1-0--0-0-------1-0-0--0-1-0--0-0-

verse
C#-------------------------------------------
G#-------------------------------------------
E-------------10--9---7-----------10---9-----
B-0//14-12--10--9---8-2//14-12---10--9-------
F#-------------------------------------------
C#----------------------------------0--------
[ Tab from: http://www.guitartabs.cc/tabs/l/limp_bizkit/counterfeit_tab.html ]
bridge
C#-------------------------------------------
G#-------------------------------------------
E------14-----14-------------12------12//14--
B----14------------14------12--------12//14--
F#-12-------12-------12---10-------10--------
C#-------------------------------------------

long fill
C#----------------------------------------------------------
G#----------------------------------------------------------
E-----------------------------------------------------------
B-----------------------------------------------------------
F#---7-5------------------------7-5-------------------------
C#-0-----0-5h7--0-3--0-0--0-2h3-2--0-----0-5h7--0-3-0-0--12-

ending
C#----------------------------------------------
G#----------------------------------------------
E-----------------------10---9------------9//14-
B------------------14--12----10---9\\7----------
F#-----------5//12------------------------------
C#-0--------------------------------------------
Comments