Limp Bizkit - Clunk Chords & Tabs

 

Clunk Chords & Tabs

Limp Bizkit Chords & Tabs

Version: 1 Type: Tab 0 ratings
1 star 2 stars 3 stars 4 stars 5 stars
comments

Clunk Tab

 -------------------------------------------------------------------------

	Song: Clunk
	Band: Limp Bizkit
	Album: Three Dollar Bill Y'All $
	Transcribed by: Johan Braathen 

 -------------------------------------------------------------------------

	The bass intro

D|------------------------------------------|
A|------------------------------------------|
F|------------------------------------------|
C|------------------------------------------|
G|---2-0-2-0-2-3-2-0-----2---0-2-0-2-3-0----|
C|---2-0-2-0-2-3-2-0-----2---0-2-0-2-3-0----|


	Then when Fred says  Clunk    Clunk Clunk Clunk... 
	play this(all palm muted)

D|-----------------------------------------------------------|
A|-----------------------------------------------------------|
F|-----------------------------------------------------------|
C|-----------------------------------------------------------|
G|---0----0-------0--0--------0----0--------0----------------|
C|---0----0-------0--0--------0----0--------0----------------|


	Verse: (All notes palm muted)
[ Tab from: http://www.guitartabs.cc/tabs/l/limp_bizkit/clunk_tab.html ]
D|------------------------------------------------------------------|
A|------------------------------------------------------------------|
F|------------------------------------------------------------------|
C|------------------------------------------------------------------|
G|-0---0------0----------0---0------0---0---3-3-4-4-0---------------|
C|-0---0------0----------0---0------0---0---3-3-4-4-0---------------|


	Chorus:

D|-----------------------------------------------------------|
A|-------0---------------------------------------------------|
F|---5-------------------------------------------------------|
C|-----------------------------------------------------------|
G|---------------2-3-2-1-2-1-0-1----0-1-0-1-2-1-0------------|
C|---------------2-3-2-1-2-1-0-1----0-1-0-1-2-1-0------------|
            p.m----------------------------------I  


	End riff:

D|---------------------------------|
A|---------------------------------|
F|---------------------------------|
C|---------------------------------|
G|--1-0---0-0---1-0-1-0---0-0------|
C|--1-0---0-0---1-0-1-0---0-0------|


This is not exact, so please send comments. 


Comments