Limp Bizkit - Clunk Chords & Tabs

 

Clunk Chords & Tabs

Limp Bizkit Chords & Tabs

Version: 1 Type: Bass Tab 0 ratings
1 star 2 stars 3 stars 4 stars 5 stars
comments

Clunk Bass Tab

   
Clunk
by Limp Bizkit
 
tabbed by the rat            tuning   (c#  e a d g)
 
Clunk...  and   Hey mister.....
G------------------------------------------------------------------------------------------------------------------------------------
D------------------------------------------------------------------------------------------------------------------------------------ 
A------------------------------------------------------------------------------------------------------------------------------------ 
E------------------------------------------------------------------------------------------------------------------------------------- 
C#---0---2---3---0---2---3---0----0---2---3---2-3-2------0---1---2---3---0---2---3----0----0---2---3---2-3-2----- 
 
And never will......                                         repeatx4       Its gone too far....
G--------------------------------------------------------------------------------|------------------------------------------------
D--------------------------------------------------------------------------------|------------------------------------------------ 
A-----4----3~------------------------------------------------------------------|------------------------------------------------ 
E---------------------------------------------------------------------------------|------------------------------------------------- 
C#--------------------0---2---3---0---2---3----0--0--0---2---3---2-3-2-|-----------0-------0-------2-3-0----0------- 
 
You need to drop that freakin ego....
G----------------------------------------------------------------------------------
D----------------------------------------------------------------------------------- 
A-----4-----3--------------------------------4------3---------------------------- 
E------------------2------6------6------------------------2-------6------6------ 
C#--------------------------------------------------------------------------------- 
 
Do yourself a favor.....      repeat      No!.....              repeat         Pause
G----------------------------------------------|--------------------------------------|----------------------
D----------------------------------------------|--------------------------------------|----------------------- 
A----------------------------------------------|--------------------------------------|---------------4------- 
E----------------------------------------------|--------------------------------------|---6------------------- 
C#---X-----0------1h0----0-----1h0------|----1h0--00---1h0-1h0--00---|---------0------------- 
 
Outro                                                        repeat a lot
G--------------------------------------------------------------------------------------------
D---6~~---------------------------6~~---------6--------------------------6~~-------- 
A---4~~---------------------------4~~-----4------------------------------4~~------- 
E-------------------------------------------------------------------------------------------
C#-------------5-4-3-0-3-4-5----------------------5-4-3-0-3-4-5------------------ 

[ Tab from: http://www.guitartabs.cc/tabs/l/limp_bizkit/clunk_btab.html ]
Comments