Limp Bizkit - Cambodia Chords & Tabs

 

Cambodia Chords & Tabs

Limp Bizkit Chords & Tabs

Version: 1 Type: Tab 0 ratings
1 star 2 stars 3 stars 4 stars 5 stars
comments

Cambodia Tab

   
"Cambodia"
Limp Bizkit
Significant Other/Family Values Tour


Tuned down to C#, F#, B, E, G#, C#



Fig. 1        (Listen to get the rhythm)
C#----------------------------------------------------------------------------
F#----------------------------------------------------------------------------
B-----------------------------------------------------------------------------
E-----------------------------------------------------------------------------
G#----------------------------------------------------------------------------
C# 1--0--1--0--0--1--1--0--1--0--0--1--1--0--1--0--0--1/5--0--5--0--5h6
  


Fig.2
C#----------
F#----------
B-----------
E---2--3--2-
G#--2--3--2-
C#--0--1--0 -

[ Tab from: http://www.guitartabs.cc/tabs/l/limp_bizkit/cambodia_tab.html ]
Fig. 3 (I'm not sure about this part) - Used after Fig. 2 in beginning
and 
after verse.
C#--10
F#--12
B------
E------
G#----
C#----


Fig. 4
C#-------------------------
F#-------------------------
B---------------------------
E---------------------------
G# 3--2--2--2--8--x--8
C# 1--0--0--0--6--x--6


Fig.5 (verse part 1) Listen to get the rhythm
C#10--11--11--12------13--12--14--13-------13--12--14--13-----
F#--------------------------------------------------------------------------
B----------------------------------------------------------------------------
E----------------------------------------------------------------------------
G#--------------------------------------------------------------------------
C#--------------------------------------------------------------------------
 
 



Fig. 6 (verse part 2)
Just combine the two different parts into one riff.



Fresh Tabs 
http://freshtabs.hypermart.net

NOTE: If you got this tab from anywhere else,kindly report to freshtabs@yahoo.com
Comments