Limp Bizkit - Cambodia Chords & Tabs

 

Cambodia Chords & Tabs

Limp Bizkit Chords & Tabs

Version: 2 Type: Bass Tab 0 ratings
1 star 2 stars 3 stars 4 stars 5 stars
comments

Cambodia Bass Tab

Song: Cambodia
Artist: Limp Bizkit
Album: Family Values Tour '98 CD
Tabbed By: Matt A
E-mail: low_end69@hotmail.com

   
      Intro
E-------------------------------------------------------
B-------------------------------------------------------
F#------------------------------------------------------
C#--1-0-1-0-0-1--1-0-1-0-0-1--1-0-1-0-0-1--4-0-4-0-4-5--

      Intro No.2
E------------------
B------------------
F#-----------------
C#----6-5-3--------


[ Tab from: http://www.guitartabs.cc/tabs/l/limp_bizkit/cambodia_btab_ver_2.html ]
      Chorus
E-----------------------------------------------
B-----------------------------------------------
F#----------------------------------------------
C#-----00-66------00-66------00-66------00-66---



      Verse 
E--------------------------
B--------------------------
F#--------11---10----------
C#-------------------------


  Order-
 Intro x2 then x 4
 Intro No. 2 x 15
 Chorus x 1
 Verse x 12
 Chorus x 2
 Verse x 10
 Chorus x 2

 I am pretty sure this is all correct, if you have any corrections,
 please e-mail me with them.
Comments