Limp Bizkit - Build A Bridge Chords & Tabs

 

Build A Bridge Chords & Tabs

Limp Bizkit Chords & Tabs

Version: 5 Type: Tab 0 ratings
1 star 2 stars 3 stars 4 stars 5 stars
comments

Build A Bridge Tab

   
Limp Bizkit


tabed by lil_poot...aka DUSTIN(first tab)
Build A Bridge
results may vary
C#,F#,B,E,G#,C#
tabber: korotz

verse                                                                            gII verse
C#|-----------------------------------------------------------------------| |----------------|
G#|-----------------------------------------------------------------------| |------------12*-|
E |----------0---------------0----------------0-----------------0---------| |-5*-------------|
B |----4-0-----0---0---5-0-----0---0-----0------0----------0------0-------| |------5*--------|
F#|--2-----2-----2---3-----3-----3-----5-------------5---5-------------5--| |----------------|
C#|----------------------------------3-----3-------3---3-----3-------3----| |----------------|


pre-chorus
C#|---------------------------------------------------------------------------|
G#|---------------------------------------------------------------------------|
E |---------------------------------------------------------------------------|
B |------9-----9-----9-----9-----9-----7-----7-----7-----7-----7--------------|
F#|----7-----7-----7-----7-----7-----5-----5-----5-----5-----5----------------|
C#|--5-----5-----5-----5-----5-----3-----3-----3-----3-----3------------------|

[ Tab from: http://www.guitartabs.cc/tabs/l/limp_bizkit/build_a_bridge_tab_ver_5.html ]
chorus I                            fill
C#|-------------------------------| |-----------------------------------------|
G#|-------------------------------| |-----------------------------------------|
E |--9----------7------------6----| |---9-----------7----------6--------------|
B |--6----------4------------5----| |---6-----------4----------5-----7--------|
F#|--7----------5------------7----| |---7-----------5----------7--------------|
C#|--------------------------5----| |--------------------------5--------------|


breakdown
C#|------------------------------------------------------------------------------------------|
G#|------------------------------------------------------------------------------------------|
E |------------------------------------------------------------------------------------------|
B |--7-7-7-7--7-7-7-7-7-7--7-7-5-5-5-5--5-5-4-4-4-4-4-4--7-7-7-7--7-7-7-7-7-7--7-7-5----4----|
F#|--5-5-5-5--5-5-5-5-5-5--5-5-3-3-3-3--3-3-2-2-2-2-2-2--5-5-5-5--5-5-5-5-5-5--5-5-3----2----|
C#|------------------------------------------------------------------------------------------|
pm   . . . .  . . . . . .  . . . . . .  . . . . . . . .  . . . .  . . . . . .  . .


chorus II
C#|--2-----0-----7-------2-----0-----7----|
G#|--2-----0-----7-------2-----0-----7----|
E |--3-----1-----8-------3-----1-----8----|
B |--4-----2-----9-------4-----2-----9----|
F#|--4-----2-----9-------4-----2-----9----|
C#|--2-----0----s7-------2-----0----s7----|
Comments