Limp Bizkit - Build A Bridge Chords & Tabs

 

Build A Bridge Chords & Tabs

Limp Bizkit Chords & Tabs

Version: 4 Type: Tab 0 ratings
1 star 2 stars 3 stars 4 stars 5 stars
comments

Build A Bridge Tab

This is the way he plays it on album launch.
Tuining- Down a step and a half
Listen to the song for timing. 

e|-------------------------------------------------------------------------|
B|-------------------------------------------------------------------------|
G|-------0---------0----------0--------0-----------------------------------|
D|-----0--0-0----0--0-0-0---0--0-0---0--0-0--------------------------------|
A|----9--------10----------5--------5--------------------------------------|
E|--7---7--7--8---8--8-8--3--3--3--3--3--3---------------------------------|
(Let all notes ring for best sound)

e|-------------------------------------------------------------------------|
B|-------------------------------------------------------------------------|
G|-------------------------------------------------------------------------|
D|----7-----5--------------------------------------------------------------|
A|----7-----5--------------------------------------------------------------|
E|----5-----3--------------------------------------------------------------|
[ Tab from: http://www.guitartabs.cc/tabs/l/limp_bizkit/build_a_bridge_tab_ver_4.html ]
e|-------------------------------------------------------------------------|
B|-------------------------------------------------------------------------|
G|----9----7---------------------------------------------------------------|
D|----9----7----7----------------------------------------------------------|
A|----7----5----7----------------------------------------------------------|
E|--------------5----------------------------------------------------------|

e|-------------------------------------------------------------------------|
B|-------------------------------------------------------------------------|
G|-------------------------------------------------------------------------|
D|---7--------------7------------------------------------------------------|
A|--5--9--7---------5--9-7-------------------------------------------------|
E|----7--5-------------7-5-------------------------------------------------|

Acustic Chorus
e|-------------------------------------------------------------------------|
B|-------------------------------------------------------------------------|
G|--11----9----------------------------------------------------------------|
D|--11----9------9---------------------------------------------------------|
A|---9----7------9---------------------------------------------------------|
E|---------------7---------------------------------------------------------|
Comments