Limp Bizkit - Build A Bridge Standard Tuning Chords & Tabs

 

Build A Bridge Standard Tuning Chords & Tabs

Limp Bizkit Chords & Tabs

Version: 1 Type: Tab 0 ratings
1 star 2 stars 3 stars 4 stars 5 stars
comments

Build A Bridge Standard Tuning Tab

   
| /  slide up
|   slide down
| h  hammer-on
| p  pull-off
| ~  vibrato
| +  harmonic
| x  Mute note
===============================================================================
-------------------------------------------------------------------------------
			     Build a Bridge - Limp Bizkit
-------------------------------------------------------------------------------
Tuning: EADGBE - standard tuning


Tab By Ian Stewart- Binks
any Questions binkies92@hotmail.com


Intro/Verse: This goes on in the background
e|----------------------------------------------------------------------|
B|----------------------------------------------------------------------|
G|----------------------------------------------------------------------| 
D|----1-----2------------1-----2-----------1-----2---------1-----2------|
A|------2-----2---2----0---2-0---2-0-2-------2-----2---------2-----2----|
E|--4-----4-----4------------------------0-----0-----0---0-----0-----0--|

Chorus: Heavy Distortion, power chords

     C#              B               F#
e|------------------------------------------------------------------|
B|------------------------------------------------------------------|
G|---6-6-6-6-6-6-6-6-4-4-4-4-4-4-4-4--------------------------------| x3
D|---6-6-6-6-6-6-6-6-4-4-4-4-4-4-4-4-4-4-4-4-4-4-4-4-4-4-4-4-4-4-4-4|
A|---4-4-4-4-4-4-4-4-2-2-2-2-2-2-2-2-4-4-4-4-4-4-4-4-4-4-4-4-4-4-4-4|
E|-----------------------------------2-2-2-2-2-2-2-2-2-2-2-2-2-2-2-2|

     C#              B               F#
e|------------------------------------|
B|------------------------------------|
G|---6-6-6-6-6-6-6-6-4-4-4-4-4-4-4-4--| 
D|---6-6-6-6-6-6-6-6-4-4-4-4-4-4-4-4-4|
A|---4-4-4-4-4-4-4-4-2-2-2-2-2-2-2-2-4|
E|-----------------------------------2|

Then play the intro/verse section again.

Then the chorus once more.

Then this:
This is supposed to be played by the bass, but it works just as well on the
guitar.  It is played quietly with no distortion, turn your tone down so your
guitar sounds more like a bass. 
[ Tab from: http://www.guitartabs.cc/tabs/l/limp_bizkit/build_a_bridge_standard_tuning_tab.html ]
"wait....wait for me"
e|---------------------------------------------------|
B|---------------------------------------------------|
G|---------------------------------------------------|
D|---------------------------------------------------|
A|---9--------7----6------------9-----------7----6---|
E|-7--------5----4------------7-----------5----4-----|

still singing "wait for me" but the power chords come in
they are off beat, this is the EXACT strum pattern, listen to the song to get it
right, it sounds weird at first but once you figure out which beats to stress
you'll get it

Also play this PALM MUTED.

e|--------------------------------------------------------------------------|
B|--------------------------------------------------------------------------|
G|--------------------------------------------------------------------------|
D|-9-9-9-9-9---9-9-9-9-9-9-9---9-9-7-7-7-7-7---7-7-6-6-6-6-6---6-6-9-9-9-9-9|
A|-9-9-9-9-9---9-9-9-9-9-9-9---9-9-7-7-7-7-7---7-7-6-6-6-6-6---6-6-9-9-9-9-9|
E|-7-7-7-7-7---7-7-7-7-7-7-7---7-7-5-5-5-5-5---5-5-4-4-4-4-4---4-4-7-7-7-7-7|

e|--------------------------------------------------------------------------|
B|--------------------------------------------------------------------------|
G|--------------------------------------------------------------------------|
D|-9-9-9-9-9-9-9---9-9-7----------------6-----------------------------------|
A|-9-9-9-9-9-9-9---9-9-7----------------6-----------------------------------|
E|-7-7-7-7-7-7-7---7-7-5----------------4-----------------------------------|


then more power chords, easy beat though just simple strumming
               "even though..."
e|-----------------------------------------------------------------|
B|-----------------------------------------------------------------|Repeat
G|--8-8-8-8-8-8-8-8-6-6-6-6-6-6-6-6--------------------------------|x3
D|--8-8-8-8-8-8-8-8-6-6-6-6-6-6-6-6-6-6-6-6-6-6-6-6-6-6-6-6-6-6-6-6|
A|--6-6-6-6-6-6-6-6-4-4-4-4-4-4-4-4-6-6-6-6-6-6-6-6-6-6-6-6-6-6-6-6|
E|----------------------------------4-4-4-4-4-4-4-4-4-4-4-4-4-4-4-4|


e|-----------------------------------------------------------------|
B|-----------------------------------------------------------------|Repeat
G|--8-8-8-8-8-8-8-8-6-6-6-6-6-6-6-6--------------------------------|x3
D|--8-8-8-8-8-8-8-8-6-6-6-6-6-6-6-6-6------------------------------|
A|--6-6-6-6-6-6-6-6-4-4-4-4-4-4-4-4-6------------------------------|
E|----------------------------------4------------------------------|

then go back to CHORUS to finish the song off!

Comments