Limp Bizkit - Break Stuff Chords & Tabs

 

Break Stuff Chords & Tabs

Limp Bizkit Chords & Tabs

Version: 9 Type: Tab 0 ratings
1 star 2 stars 3 stars 4 stars 5 stars
comments

Break Stuff Tab

Limp Bizkit - Break Stuff
Tabbed by: Xavieres
Tuning: Drop C# 

It's easy to play. This is the real one. No imitations.

Verse: x9
|------------|
|------------|
|--------4-x-|
|-4------x-x-|
|-x------2-x-|
|-2----------|


Chorus: x2
|---------------------------------------------------------------------|
|---------------------------------------------------------------------|
|-----------------------------------------------------------------4-x-|
|-4/5\4--4//5\\4-xxx-4/5\4--4//5\\4-xxx-4/5\4--4//5\\4-xxx-4------x-x-|
|-x/x\x--x//x\\x-xxx-x/x\x--x//x\\x-xxx-x/x\x--x//x\\x-xxx-x------2-x-|
|-2/3\2--2//3\\2-xxx-2/3\2--2//3\\2-xxx-2/3\2--2//3\\2-xxx-2----------|


Verse: x8
|------------|
|------------|
|--------4-x-|
|-4------x-x-|
|-x------2-x-|
|-2----------|

[ Tab from: http://www.guitartabs.cc/tabs/l/limp_bizkit/break_stuff_tab_ver_9.html ]
Chorus: x2
|---------------------------------------------------------------------|
|---------------------------------------------------------------------|
|-----------------------------------------------------------------4-x-|
|-4/5\4--4//5\\4-xxx-4/5\4--4//5\\4-xxx-4/5\4--4//5\\4-xxx-4------x-x-|
|-x/x\x--x//x\\x-xxx-x/x\x--x//x\\x-xxx-x/x\x--x//x\\x-xxx-x------2-x-|
|-2/3\2--2//3\\2-xxx-2/3\2--2//3\\2-xxx-2/3\2--2//3\\2-xxx-2----------|


Verse 2:
|-----------------|-----------------|
|-----------------|-----------------|
|-----------------|-----------------|
|-----------------|-----------------|
|-2----2----2--2--|-2-----2-----2---|
|--2----2----2--2-|--22222-22222-22-|
|_________________|_________________|
         x8                x11


Verse 3:
|-----------------|------------|
|-----------------|------------|
|-4-----4-----4---|--------4-x-|
|-x44444x44444x44-|-4------x-x-|
|-2xxxxx2xxxxx2xx-|-x------2-x-|
|--22222-22222-22-|-2----------|
|_________________|
        x11


Chorus: x2
|---------------------------------------------------------------------|
|---------------------------------------------------------------------|
|-----------------------------------------------------------------4-x-|
|-4/5\4--4//5\\4-xxx-4/5\4--4//5\\4-xxx-4/5\4--4//5\\4-xxx-4------x-x-|
|-x/x\x--x//x\\x-xxx-x/x\x--x//x\\x-xxx-x/x\x--x//x\\x-xxx-x------2-x-|
|-2/3\2--2//3\\2-xxx-2/3\2--2//3\\2-xxx-2/3\2--2//3\\2-xxx-2----------|
Comments