Limp Bizkit - Break Stuff Chords & Tabs

 

Break Stuff Chords & Tabs

Limp Bizkit Chords & Tabs

Version: 8 Type: Tab 0 ratings
1 star 2 stars 3 stars 4 stars 5 stars
comments

Break Stuff Tab

   
Limp Bizkit: Break Stuff

Tabbed By: Neil De Silva cap_back_mac@yahoo.co.uk

   Tuning: C#, G#, E, D, F#, C#


   " \ "= bend
   " h "= hammer on
   " X "- mute
   "PM "- palm mute
   
         
        (Distortion)  Intro
C#|----------------------||
F#|----------------------||
D-|----------------------||
E-|-----h4---------h4----||
G#|---0-h4--3----0-h4--3-||
C#|---0-h2-------0-h2----||
         

Distortion Through whole song

         
        (Distortion)  Verse
C#|-----------------------------------------||
F#|-----------------------------------------||
D-|-----------------------------------------||
E-|-----h4--------4-------0-h4-------4------||
G#|---0-h4--3-----4--3----0-h4--3----4--3---||
C#|---0-h2--------2-------0-h2-------2------|| Play X2
   
   "Its just one a those days..."

                      Chorus
C#|-----------------------------|-----------------------------------|----------------------------|---------------||
F#|-----------------------------|-----------------------------------|----------------------------|---------------||
D-|-----------------------------|-----------------------------------|----------------------------|---------------||
E-|-----------------------------|-----------------------------------|----------------------------|---------------||
G#|--2-\-(3)----2-\-(3)---2-2-2-|--------2-\-(3)----2-\-(3)---2-2-2-|-2-\-(3)----2-\-(3)---2-2-2-|-2-\-(3)-\-(2)-||
C#|--2-\-(3)----2-\-(3)---2-2-2-|--------2-\-(3)----2-\-(3)---2-2-2-|-2-\-(3)----2-\-(3)---2-2-2-|-2-\-(3)-\-(2)-||
                        PM...... (palm mute the three chords) PM....                       PM....

C#|-----------------------------|-----------------------------------|----------------------------|---------------||
F#|-----------------------------|-----------------------------------|----------------------------|---------------||
D-|-----------------------------|-----------------------------------|----------------------------|---------------||
E-|-----------------------------|-----------------------------------|----------------------------|-4-------------||
G#|--2-\-(3)----2-\-(3)---2-2-2-|--------2-\-(3)----2-\-(3)---2-2-2-|-2-\-(3)----2-\-(3)---2-2-2-|-4---3---------||
C#|--2-\-(3)----2-\-(3)---2-2-2-|--------2-\-(3)----2-\-(3)---2-2-2-|-2-\-(3)----2-\-(3)---2-2-2-|-2-------------||
                        PM......                             PM....                        PM....

(Distortion)  Verse
C#|-----------------------------------------||
F#|-----------------------------------------||
D-|-----------------------------------------||
E-|-----h4--------4-------0-h4-------4------||
G#|---0-h4--3-----4--3----0-h4--3----4--3---||
C#|---0-h2--------2-------0-h2-------2------|| Play X2
[ Tab from: http://www.guitartabs.cc/tabs/l/limp_bizkit/break_stuff_tab_ver_8.html ]
  
              Chorus
C#|-----------------------------|-----------------------------------|----------------------------|---------------||
F#|-----------------------------|-----------------------------------|----------------------------|---------------||
D-|-----------------------------|-----------------------------------|----------------------------|---------------||
E-|-----------------------------|-----------------------------------|----------------------------|---------------||
G#|--2-\-(3)----2-\-(3)---2-2-2-|--------2-\-(3)----2-\-(3)---2-2-2-|-2-\-(3)----2-\-(3)---2-2-2-|-2-\-(3)-\-(2)-||
C#|--2-\-(3)----2-\-(3)---2-2-2-|--------2-\-(3)----2-\-(3)---2-2-2-|-2-\-(3)----2-\-(3)---2-2-2-|-2-\-(3)-\-(2)-||
                        PM...... (palm mute the three chords) PM....                       PM....

C#|-----------------------------|-----------------------------------|----------------------------|---------------||
F#|-----------------------------|-----------------------------------|----------------------------|---------------||
D-|-----------------------------|-----------------------------------|----------------------------|---------------||
E-|-----------------------------|-----------------------------------|----------------------------|-4-4-2---------||
G#|--2-\-(3)----2-\-(3)---2-2-2-|--------2-\-(3)----2-\-(3)---2-2-2-|-2-\-(3)----2-\-(3)---2-2-2-|-4-4-2---------||
C#|--2-\-(3)----2-\-(3)---2-2-2-|--------2-\-(3)----2-\-(3)---2-2-2-|-2-\-(3)----2-\-(3)---2-2-2-|-2-2-0---------||
                        PM......                             PM....                        PM....
      
              



              Middle (Do As Many According To The Song)
C#|--------|---------|--------|----------|------|
F#|--------|---------|--------|----------|------|
D-|--------|---------|--------|----------|------|
E-|--------|---------|--------|----------|------|
G#|--------|---------|--------|----------|------|
C#|--5---2-|--5---2--|-5----2-|--5----2--|------|
   PM..............................

C#|--------|---------|--------|----------|------|
F#|--------|---------|--------|----------|------|
D-|--------|---------|--------|----------|------|
E-|--------|---------|--------|----------|------|
G#|--------|---------|--------|----------|------|
C#|--5---2-|--5---2--|-5----2-|--5----2--|------|
  
  "Break You F**king Face Tonight"

C#|----------||
F#|----------||
D-|----------||
E-|----4-----||
G#|----4--3--||
C#|----2-----||

              
Chorus
C#|-----------------------------|-----------------------------------|----------------------------|---------------||
F#|-----------------------------|-----------------------------------|----------------------------|---------------||
D-|-----------------------------|-----------------------------------|----------------------------|---------------||
E-|-----------------------------|-----------------------------------|----------------------------|---------------||
G#|--2-\-(3)----2-\-(3)---2-2-2-|--------2-\-(3)----2-\-(3)---2-2-2-|-2-\-(3)----2-\-(3)---2-2-2-|-2-\-(3)-\-(2)-||
C#|--2-\-(3)----2-\-(3)---2-2-2-|--------2-\-(3)----2-\-(3)---2-2-2-|-2-\-(3)----2-\-(3)---2-2-2-|-2-\-(3)-\-(2)-||
                        PM...... (palm mute the three chords) PM....                       PM....

C#|-----------------------------|-----------------------------------|----------------------------|---------------||
F#|-----------------------------|-----------------------------------|----------------------------|---------------||
D-|-----------------------------|-----------------------------------|----------------------------|---------------||
E-|-----------------------------|-----------------------------------|----------------------------|-4-4-2---------||
G#|--2-\-(3)----2-\-(3)---2-2-2-|--------2-\-(3)----2-\-(3)---2-2-2-|-2-\-(3)----2-\-(3)---2-2-2-|-4-4-2---------||
C#|--2-\-(3)----2-\-(3)---2-2-2-|--------2-\-(3)----2-\-(3)---2-2-2-|-2-\-(3)----2-\-(3)---2-2-2-|-2-2-0---------||
                        PM......                             PM....                        PM....

                                  So Come And Get It
Comments