Limp Bizkit - Break Stuff Chords & Tabs

 

Break Stuff Chords & Tabs

Limp Bizkit Chords & Tabs

Version: 7 Type: Tab 0 ratings
1 star 2 stars 3 stars 4 stars 5 stars
comments

Break Stuff Tab

   
Limp Bizkit - Break Stuff

This is a really simple song to learn and play well follow this tab and
u'll be playing like Wes in no time.


First off, u wil need to downtune your guitar to a 
'Drop C'
C, G, C, F, A, D
I suggest downloading the Audio Phonics Tuner from downloads.com for this.


~ = Ring
b = bend

The Verse Riff

D|------------
A|------------
F|------------
C|---3 ~~--2--
G|---3 ~~--2--
C|---3 ~~-----
repeat as many time as necessary

Chorus
[ Tab from: http://www.guitartabs.cc/tabs/l/limp_bizkit/break_stuff_tab_ver_7.html ]
D|-----------------------------------------------------------
A|-----------------------------------------------------------
F|-----------------------------------------------------------
C|---3----3b---XXX---3----3b---XXX---3----3b---XXX---3 ~--2--
G|---3----3b---XXX---3----3b---XXX---3----3b---XXX---3 ~--2--
C|---3b---3b---XXX---3b---3b---XXX---3b---3b---XXX---3 ~-----
listen to CD for rhythm and number of times played


The Verse Riff

D|------------
A|------------
F|------------
C|---3 ~~--2--
G|---3 ~~--2--
C|---3 ~~-----
Repeat as necessary


bridge/build up
D|------------
A|------------
F|------------
C|---2-3-----  repeat until #...break youre f'n face tonight#
G|---2-3-----  again listen to the song for the rhythm.
C|-----3-----
   [______]
      |
heavily palm muted


Da Heavy Bit

D|-------------------
A|-------------------
F|-------------------
C|-------------------
G|--3------3---3-----
C|----2-0-2--2--2----

repeat this (for number of times listen to the song)

D|------------
A|------------
F|------------
C|---3 ~~--2--
G|---3 ~~--2--
C|---3 ~~----- X1
play this once then go back to the chorus riff.


Now this tab is pretty much correct apart from the heavy bit, with i think is a bit off
suggestions, additions etc,  mail me at gartt666@hotmail.com 
Comments