Limp Bizkit - Break Stuff Chords & Tabs

 

Break Stuff Chords & Tabs

Limp Bizkit Chords & Tabs

Version: 5 Type: Tab 0 ratings
1 star 2 stars 3 stars 4 stars 5 stars
comments

Break Stuff Tab

   
Song - Break Stuff
Artist - Limp Bizkit
Tabbed by - Steel Picker

Tuning - Dropped D Tuning (E B G D A D )
I figured this song out recently. 
I looked at the other tabs and they didn't sound nothing like the real thing. 
So I got the real deal here folks!
[ Tab from: http://www.guitartabs.cc/tabs/l/limp_bizkit/break_stuff_tab_ver_5.html ]
	Intro and Verse                                       Chorus
E--------------------------------------------------- |  --------------------------------------------------------
B--------------------------------------------------- | ---------------------------------------------------------
G--------------2--------------------2--------------- | --------------------------------------------2------------
D----1---------2----------1---------2--------------- | ----1-----1/2---1---x--x---x------1-----2----------------
A----1---------0----------1---------0--------------- | ----1-----1/2---1---x--x---x------1-----0----------------
D----1--------------------1------------------------- | ----1-----1/2---1---x--x---x------1----------------------
                                                                                  |__________________|
                                                                                     Repeat 3x 

	Bridge........Repeat over and over 
E---------------------------------------------------------- | --------------------------------------------
B---------------------------------------------------------- | --------------------------------------------
G-----2-----------2----------2-----------2----------------- | ---2----------------------------------------
D-----2-----1-----2----1-----2-----1-----2----1------------ | ---2----1---x--x---x------------------------
A-----1-----1-----1----1-----1-----1-----1----1------------ | ---1----1---x--x---x------------------------
D-----1-----1-----1----1-----1-----1-----1----1------------ | ---1----1---x-x-x---------------------------

That's really it, just keep stumming the part above over and 
over when Fred is yelling "Gimme somethin' to break!" Then go 
back to the chorus. Peace of cake. I'm out..peace!
Comments