Limp Bizkit - Break Stuff Chords & Tabs

 

Break Stuff Chords & Tabs

Limp Bizkit Chords & Tabs

Version: 3 Type: Tab 0 ratings
1 star 2 stars 3 stars 4 stars 5 stars
comments

Break Stuff Tab

   
#----------------------------------PLEASE NOTE---------------------------------#
#This file is the author's own work and represents their interpretation of the #
#song. You may only use this file for private study, scholarship, or research. #
#------------------------------------------------------------------------------#

Break Stuff
Limp Bizkit
Six String Version

Dropped D Tuning (but on the CD it's tuned slightly higher)

Verse Riff
e---------------------------------------------------------------------
B---------------------------------------------------------------------
G-------------------REPEAT THROUGHOUT VERSES--------------------------
D--1-h-2---1-h-2------------------------------------------------------
A--1-h-2---1-h-2------------------------------------------------------
D--1-h-2---1-h-2------------------------------------------------------

 "It's Chorus Riff
e------------------------------|-----------------------------------------------
B------------------------------|-----------------------------------------------
G------------------------------|-----------------------REPEAT THROUGHOUT-------
D--1-1----1-h-2-po-1---2-po-1--|--1-1----1-h-2-po-1---------CHORUS-------------
A--1-1----1-h-2-po-1---2-po-1--|--1-1----1-h-2-po-1----------------------------
D--1-1----1-h-2-po-1---2-po-1--|--1-1----1-h-2-po-1----------------------------

Repeat Chorus Riff and lyrics

**********************************************************************************************************
[ Tab from: http://www.guitartabs.cc/tabs/l/limp_bizkit/break_stuff_tab_ver_3.html ]
Band-Limp Bizkit
Song-Break Stuff
CD-Significant Other
Tabbed by- Josh W (josh23az@hotmail.com)
 
Fred said on Ultra Sound that anyone could pick up a guitar and play this song so I tried!
 
Chorus:
 
e-------------------------------------------------|
B-------------------------------------------------|
G-------------------------------------------------|
D-6-6-6-6-6---6-6-6-6-6---6-6-6-6-6---6-6-6-6-6---|
A-6-6-6-6-6---6-6-6-6-6---6-6-6-6-6---6-6-6-6-6---|
E-4-4-4-4-4---4-4-4-4-4---4-4-4-4-4---4-4-4-4-4---|
 
Verse:
 
e---------------------------------------------------|
B---------------------------------------------------|
G---------------------------------------------------|
D-6-6-6-6--6--6-6-6-6--6--6-6-6-6--6--6-6-6-6--6----|
A-6-6-6-6------6-6-6-6------6-6-6-6-----6-6-6-6-----|
E-4-4-4-4------4-4-4-4------4-4-4-4-----4-4-4-4-----|


Bridge Riff

                                                                                
E-------------------------------------------------------------------------------|
B-------------------------------------------------------------------------------|
G---------------------------------REPEAT THROUGHOUT-----------------------------|
D---7-------1----7-------1-------------BRIDGE-----------------------------------|
A---7-slide-1----7-slide-1------------------------------------------------------|
D---7-------1----7-------1------------------------------------------------------|


**************************************************************************************************************

Artist: Limp Bizkit
Song: Counterfeit
Album: 3 Dollar Bill Y'all$
Tuning: C#, F#, B, E, G#, C#
Transcribed by: Toby Bardsley
Email: ihaveachainsaw@yahoo.com
Website: www.geocities.com/dodgygizas
--------------------------------------------
Key:

* = palm mute e.g------3*  palm mute on the third fret.
/ = slide
--------------------------------------------
This is the chorus, I'm 99.99% sure about this!

C#---------------------------------------|
G#---------------------------------------|
 E---------------------------------------|
 B---------------------------------------|
F#---------------------------------------|                             
C#--0-3*-3*-0-0-0-3*-4*-5*--3*-4*-5*/1*--|

Comments