Limp Bizkit - Break Stuff Chords & Tabs

 

Break Stuff Chords & Tabs

Limp Bizkit Chords & Tabs

Version: 2 Type: Tab 0 ratings
1 star 2 stars 3 stars 4 stars 5 stars
comments

Break Stuff Tab

   
Artist: Limp Bizkit
Song:  Break Stuff 

The tuning for the song is down a minor 3rd(1 ½ steps)from low to high its 
C# F# B E G# C# C# (the last C# for 7 strings only) the tab works fine for 
a standard 6 string guitar. This should be right so here it is (the letters
next to each string line do not represent how it is tuned).

/=slide up
b=bend 
()=return the bend to this note
Intro:
E)------------------------------------
E)------------------------------------
B)------------------------------------
G)------------------------------------
D)------4----------------4------------
A)------4---3------------4---3--------
e)----0/2---2----------0/2---2--------

Verse 1: Intro 4x
[ Tab from: http://www.guitartabs.cc/tabs/l/limp_bizkit/break_stuff_tab_ver_2.html ]
Chorus:
E)--------------------------------------------
E)--------------------------------------------
B)--------------------------------------------
G)--------------------------------------------3x
D)--4b---(4)------------4b---(4)---x-x-x-x----
A)--4b---(4)------------4b---(4)---x-x-x-x----
e)--2b---(2)------------2b---(2)---x-x-x-x----

E)--------------------------------
E)--------------------------------
B)--------------------------------
G)--------------------------------
D)--4---4b--------3---------------
A)--4---4b--------3---------------
e)--2---2b--------1---------------

E)--------------------------------------------
E)--------------------------------------------
B)--------------------------------------------
G)--------------------------------------------3x
D)--4b---(4)------------4b---(4)---x-x-x-x----
A)--4b---(4)------------4b---(4)---x-x-x-x----
e)--2b---(2)------------2b---(2)---x-x-x-x----

Verse 2: Intro 4x

Bridge:
E)--------------------------------
E)--------------------------------
B)--------------------------------
G)--------------------------------8x
D)--------------------------------
A)--3---------3--------3----------
e)------2---------2--------2------


Thats all I know but it's a pretty good start. If anyone knows the rest please post it.


Comments