Limp Bizkit - Break Stuff Chords & Tabs

 

Break Stuff Chords & Tabs

Limp Bizkit Chords & Tabs

Version: 10 Type: Tab 0 ratings
1 star 2 stars 3 stars 4 stars 5 stars
comments

Break Stuff Tab

   
tuning:(from low to high) c# f# b e g# c#
song:break stuff
band:limp bizkit
tabber:squiermaster

c#-----------------------|     this is the intro and verse
g#-----------------------|
e -----------------------|
b -----------------------|
f#--3/4------------------|
c#--1/2------------------|
     slide down between them
[ Tab from: http://www.guitartabs.cc/tabs/l/limp_bizkit/break_stuff_tab_ver_10.html ]
c#-----------------------------------------------------------------|
g#-----------------------------------------------------------------|
e -----------------------------------------------------------------|
b -4-----(5)-(4)-----(5)-(4)-*--*---*---4------(5)-----------(3)---|
f#-4-----(5)-(4)-----(5)-(4)-*--*---*---4------(5)-----------(3)---|
c#-2-----(3)-(2)-----(3)-(2)-*--*---*---2------(3)-----------(1)---|


c#-----------------------------------------------------------------|
g#-----------------------------------------------------------------|
e -----------------------------------------------------------------|
b -4----(5)-(4)----4--------(5)-(4)--*-*----*---3/4----------------|
f#-4----(5)-(4)----4--------(5)-(4)--*-*----*---3/4----------------|
c#-2----(3)-(2)----2--------(3)-(2)--*-*----*---1/2----------------|


*=MUTE
/=SLIDE DOWN

BY SQUIERMASTER
Comments