Limp Bizkit - Break Stuff Chords & Tabs

 

Break Stuff Chords & Tabs

Limp Bizkit Chords & Tabs

Version: 1 Type: Bass Tab 0 ratings
1 star 2 stars 3 stars 4 stars 5 stars
comments

Break Stuff Bass Tab

   
Song: Break Stuff
Band: Limp Bizkit
Album: Significant Other
Tabbed by: PAiNIC  (painic@hinet.net.au)

The tab that was up here before (@) had the verse tabbed about an
octave too high, and the chorus was wrong. 

This tab works for both 4- and 5-string basses!  If you have a
4-string, tune your E string to C# (C#,A,D,G).  If you have A
5-string, tune your B string to C# (C#,E,A,D,G) and don't worry that
the E-string isn't on the tab, you don't need to use it anyway!
p.s. The timings on the CD are at the top of each riff!!

Guitar intro for 4 bars then

Verse
(0:04)
 G|----------------
 D|----------------
 A|---------0------
C#|-2-------------- (x8)
[ Tab from: http://www.guitartabs.cc/tabs/l/limp_bizkit/break_stuff_btab.html ]
Chorus (x2)
(0:22)                             (0:29)
 G|--------------------           G|----------------
 D|--------------------           D|----------------
 A|--------------------           A|---------0------
C#|-2----2b3r2--2--x-x- (x3)     C#|-2-------------- (x1)


Verse (x8) again (0:39)

Chorus (x2) again (0:57)

Interlude
(1:15)               (1:57)
 G|-------           G|----------
 D|-------           D|----------
 A|-0-----           A|-0--------
C#|-----2- (x57)    C#|---------- (x1)

(2:00)
 G|---------------------------------------------
 D|---------------------------------------------
 A|-0---------------0---------------0-----------
C#|----2---2--0--2-----2---2--0--2-----2------2- (x11)

(2:25)
 G|----------------
 D|----------------
 A|---------0------
C#|-2-------------- (x1)

Back to chorus (x2) to finish!

For more absolutely correct tabs, visit http://www.painic.cjb.net

Comments