Limp Bizkit - Boiler Chords & Tabs

 

Boiler Chords & Tabs

Limp Bizkit Chords & Tabs

Version: 4 Type: Tab 0 ratings
1 star 2 stars 3 stars 4 stars 5 stars
comments

Boiler Tab

   
Limp Bizkit - Boiler

Tuning - Drop C

^ = wiggle whammy bar
~ = feedback
b = bend
x = muted note
> = push whammy bar down for higher noise (tighten strings)
< = push whammy bar down for lower noise (loosen strings)
z = Pick Scratch down string

 Intro 
|-----------------|--------------|-------------|----------|
|-----------------|--------------|-------------|----------|
|--7--9--11----5--|--7--11----5--|--7--11--17--|--7----9--|
|--x--x--x-----x--|--x--x-----x--|--x--x---x---|--x----x--|
|--5--7--9-----3--|--5--9-----3--|--5--9---15--|--5----7--|
|-----------------|--------------|-------------|----------|


 Chorus
|--------------------------|    |--------------------------|--------------------------|
|--------------------------|    |--------------------------|--------------------------|
|--9-99-9-99b-99--9-9b-9b--| x2 |--5-55-5-55b-55--5-5b-5b--|--7-77-7-77b-77--7-7b-7b--|
|--9-99-9-9x--99--9-x--x---|    |--5-55-5-5x--55--5-x--x---|--7-77-7-7x--77--7-x--x---|
|--7-77-7-77b-77--7-7b-7b--|    |--3-33-3-33b-33--3-3b-3b--|--5-55-5-55b-55--5-5b-5b--|
|--------------------------|    |--------------------------|--------------------------|

[ Tab from: http://www.guitartabs.cc/tabs/l/limp_bizkit/boiler_tab_ver_4.html ]
 Verse (w/ Delay) 
|-------------------------------------------------------|
|-------------------------------------------------------|
|------9-9--------9-9--9-7---------9-9--7-------9-9--7--|
|----------7--------------------------------------------|
|--7-7--------5-5----5---------------------5-5----------|
|--------------------------10-10------------------------|


 Bridge 
|-------------------------------------------|
|-------------------------------------------|
|-------------------------------------------|
|------------------------------9----~~~~~---|
|--0---~~~~~~~~~~~~~~----------7-~~~~~~~~~--|
|--0-----~~~~~~~----------------------------|

|--------------------------------------------|
|--------------------------------------------|
|--------------------------------------------|
|---------------------------------9----------|
|--~~~~~~~-x---------~~~~~~~------7-~~~~~~~--|
|----------10-----~~~~--------10-------------|
           ^                  ^
|--------------------------------|
|--------------------------------|
|----------------------9---------|
|----------------------x---------|
|------~~~~-----~~~~~--7~~~~~~~--|
|--10-~~----10-------------------|
   ^        ^

 Outro/Last Chorus
|---------------------------------------------|
|---------------------------------------------|
|----9-----9b-9>b-----9-----9-9b---7---7-7---7--
Comments