Limp Bizkit - Boiler Chords & Tabs

 

Boiler Chords & Tabs

Limp Bizkit Chords & Tabs

Version: 1 Type: Tab 0 ratings
1 star 2 stars 3 stars 4 stars 5 stars
comments

Boiler Tab

Limp Bizkit
"Boiler"
Chocolate Starfish & The Hot Dog Flavored Water
Transcribed by: Justin Madkins

Intro
C#-------------------------------------------------------------
G#-------------------------------------------------------------
E--------------------------------------------------------------
B--------------------------------------------------------------
F#-------------------------------------------------------------
C#----7----------8----------10----------------------0----------

Chorus                                                      x2
C#-------------------------------------------------------------
G#-------------------------------------------------------------
E-------9-9--9--9-9-----9-9-9-9------9b-9b---------------------
B----9--9-9--9--9-9--9--9-9-9-9---9----------------------------
F#---7--7-7--7--7-7--7--7-7-7-7---7--7b-7b---------------------
C#---0--0-0--0--0-0--0--0-0-0-0---0----------------------------

C#-------------------------------------------------------------
G#-------------------------------------------------------------
E-------9-9--9--9-9-----9-9-9-9------9b-9b---------------------
B----9--9-9--9--9-9--9--9-9-9-9---9----------------------------
F#---7--7-7--7--7-7--7--7-7-7-7---7--7b-7b---------------------
C#---8--8-8--8--8-8--8--8-8-8-8---8----------------------------

[ Tab from: http://www.guitartabs.cc/tabs/l/limp_bizkit/boiler_tab.html ]
C#-------------------------------------------------------------
G#-------------------------------------------------------------
E-------9-9--9--9-9-----9-9-9-9------9b-9b---------------------
B----7--7-7--7--7-7--7--7-7-7-7---7----------------------------
F#---5--5-5--5--5-5--5--5-5-5-5---5--7b-7b---------------------
C#-------------------------------------------------------------
 
Verse (w/ Delay)
C#----------(12)-----------------------------------------------
G#----------(12)--------(12)-----------------------------------
E-------9-9---------9-9-(12)------9-9-(12)------9-9---(12)-----
B--------------5-5--------------------(12)------------(12)-----
F#--7-7------------------------------------5-5-----------------
C#---------------------------8-8-------------------------------

Bridge
C#-------------------------------------------------------------
G#-------------------------------------------------------------
E--------------------------------------------------------------
B----2~~~~-----------------------------------------------------
F#---2~~~~--------------------------------------0--------------
C#---0~~~~-----------------------------------------------------
     ^ Hold till feedback.

Interlude
C#-------------------------------------------------------------
G#-------------------------------------------------------------
E----9~~~~--9---------9~~~~-9--------5--------7----------------
B--------------------------------------------------------------
F#---7~~~~--7---------7~~~~-7--------3--------5----------------
C#-------------------------------------------------------------
            ^               ^
           Shake whammy bar back and forth slightly

Outro (Clean w/ Delay & Reverb)
C#--(7)------(5)-----------------------------------------------
G#--(7)--(5)--------(7)-(7)------(7)------------(7)-(7)--------
E---(7)-----------------(7)-(7)----(7)----------(7)-(7)--------
B---(7)---------------------(7)------(7)--------------(7)-(7)--
F#--(7)------------------------(7)-----(7)------------(7)-(7)--
C#--(7)--------------------------------------------------------
    ^ Strum The Harmonics, different rhythms)
(This is only a general idea of the notes played, not the exact rhythm, each part is repeated a lot)
                                              


Comments