Limp Bizkit - Boiler Chords & Tabs

 

Boiler Chords & Tabs

Limp Bizkit Chords & Tabs

Version: 4 Type: Bass Tab 0 ratings
1 star 2 stars 3 stars 4 stars 5 stars
comments

Boiler Bass Tab

Artist: Limp Bizkit
Track: Boiler
Album: Chocolate Starfish and the Hotdog Flavoured Water

Ok, this is a great song to play, the verse is a lil' bit complicated but it's easy really

b = bend note

Intro/Chorus
G|------------------------------------------------------------
D|------------------------------------------------------------
A|-444-444-4b44---444-444-4b44--------------------------------      
E|-------------------------------555-555-5b55---777-777-7b77--

^ I'm not really sure how many times each note is played here, but this is how I
play it. Bending is optional, but it sounds a lot better.

Verse
G|-------------------------------11-9--------------------------------
D|------------131314-----------14-----11-----------------------------  
A|---------11----------------14---------12----14---14-16-14-11-------
E|-9---9------------12---1212----------------------------------------

^Those are 11's 13's 14's etc. NOT 1's 2's and 4's.
[ Tab from: http://www.guitartabs.cc/tabs/l/limp_bizkit/boiler_btab_ver_4.html ]
Pre Bridge
After the second chorus there is moment of quietness, in this part you just want
to hold the 4th fret on the A string until the bringe starts

Bridge
G|-----------------------------------2-----2-----2-----2-------------
D|----------------------------------2-----2-----2-----2--------------
A|--2-44---2-44---2-44---2-44-----0-----0-----0-----0----------------
E|-------------------------------------------------------------------  
                                                                       
G|----4----4-----4----4----------------------------------------------
D|---4----4-----4----4-----------------------------------------------
A|--4----4-----4----4------------------------------------------------
E|-------------------------------------------------------------------

OUTRO - Same as Verse

Song order
Intro x1
Verse x2
Chorus x1
Verse x2
Chorus x2
Pre Bridge (Hold A|--4--)
Bridge x4
Chorus x4
Outro x1

Thats it, I don't think you can get much closer than that

LEEKMAN
Comments