Limp Bizkit - Behind Blue Eyes Chords & Tabs

 

Behind Blue Eyes Chords & Tabs

Limp Bizkit Chords & Tabs

Version: 9 Type: Tab 0 ratings
1 star 2 stars 3 stars 4 stars 5 stars
comments

Behind Blue Eyes Tab

Rate this!!!
Song:Behind Blue Eyes
Normal Tuning
INTRO
1-----0----------0-------------0--------------0-------------0------------
2----0-0--------3-3--------3-----3-3------3----3-3----3------3---3-------
3--------0----------0-----2--2----2-----2--2----2--------0-----0---------
4---2-----2---0------0--0-------------0--------------2-------------------
5--2---------2--------------------------------------3--------------------
6-0---------3------------------------------------------------------------

1-------0-----------0--------------0----------------------------------------
2----3---3--3----0----0--0------0----0--0-----------------------------------
3-----0---0-------2----2---------2----2-------------------------------------
4--2-----------2--------------2---------------------------------------------
5-3-----------0-------------0-----------------------------------------------
6---------------------------------------------------------------------------

Verse
(Same as Intro)
1-----0----------0-------------0--------------0-------------0------------
2----0-0--------3-3--------3-----3-3------3----3-3----3------3---3-------
3--------0----------0-----2--2----2-----2--2----2--------0-----0---------
4---2-----2---0------0--0-------------0--------------2-------------------
5--2---------2--------------------------------------3--------------------
6-0---------3------------------------------------------------------------

1-------0-----------0--------------0-------------------------------------
2----3---3--3----0----0--0------0----0--0--------------------------------
3-----0---0-------2----2---------2----2----------------------------------
4--2-----------2--------------2------------------------------------------
5-3-----------0-------------0--------------------------------------------
6------------------------------------------------------------------------
[ Tab from: http://www.guitartabs.cc/tabs/l/limp_bizkit/behind_blue_eyes_tab_ver_9.html ]
Chorus
(Just find how the Guitar Goes, Its Easy)
1-------0-----0-------------------3------------------0--------0------0--
2-------1-----3-------------------0------------------1--------3------0--
3-------0-----2-------------------0------------------0--------2------1--
4-------2-----0-------------------0------------------2--------0------2--
5-------3-------------------------2------------------3---------------2-
6-------0-------------------------3------------------0---------------0--
But my dreams,    They arent as empty      As my conscience seems to be

1--------2-----------0-------------------0----------------------0------
2--------3-----------1-------------------3----------------------0------
3--------4-----------0-------------------2----------------------2------
4--------4-----------2-------------------0----------------------2-----
5--------2-----------3------------------------------------------0------
6--------2-----------0-------------------------------------------------
I Have hours, Only Lonely, My Love Is Vengaence, That is never free...

Bridge
(Same as intro)
1-----0----------0-------------0--------------0-------------0------------
2----0-0--------3-3--------3-----3-3------3----3-3----3------3---3-------
3--------0----------0-----2--2----2-----2--2----2--------0-----0---------
4---2-----2---0------0--0-------------0--------------2-------------------
5--2---------2--------------------------------------3--------------------
6-0---------3------------------------------------------------------------

1-------0-----------0--------------0----------------------------------------
2----3---3--3----0----0--0------0----0--0-----------------------------------
3-----0---0-------2----2---------2----2-------------------------------------
4--2-----------2--------------2---------------------------------------------
5-3-----------0-------------0-----------------------------------------------
6---------------------------------------------------------------------------

And thats all!!! Have fun......
Maximus Jozue
Comments