Limp Bizkit - Behind Blue Eyes Chords & Tabs

 

Behind Blue Eyes Chords & Tabs

Limp Bizkit Chords & Tabs

Version: 7 Type: Tab 0 ratings
1 star 2 stars 3 stars 4 stars 5 stars
comments

Behind Blue Eyes Tab

   
Behind Blue Eyes
Limp Bizkit
Results may vary

Standard tuning: EADGBE

I think this is an improvement on what was already posted and the lyrics
have been added. Have fun with it its a great song

Intro
Base chords are: Em G Dx2 Cx2 Ax2
                                                                        
E||----------------------|--0-------------------|----------------------|
B||----------------------|-------0---------0----|----------------------|
G||----------------------|------------0---------|----------------------|
D||------------2---------|----------------------|------------0---------|
A||-------2---------2----|----------------------|-------2---------2----|
E||--0-------------------|----------------------|--3-------------------|


                                                                     
--0-------------------|----------------------|--0-------------------|
-------0---------0----|------------3---------|-------3---------3----|
------------0---------|-------2---------2----|------------2---------|
----------------------|--0-------------------|----------------------|
----------------------|----------------------|----------------------|
----------------------|----------------------|----------------------|


                                                                     
----------------------|--0-------------------|----------------------|
------------3---------|-------3---------3----|----------------------|
-------2---------2----|------------2---------|------------0---------|
--0-------------------|----------------------|-------2---------2----|
----------------------|----------------------|--3-------------------|
----------------------|----------------------|----------------------|


                                                                     
--0-------------------|----------------------|--0-------------------|
-------0---------0----|----------------------|-------0---------0----|
------------0---------|------------0---------|------------0---------|
----------------------|-------2---------2----|----------------------|
----------------------|--3-------------------|----------------------|
----------------------|----------------------|----------------------|

[ Tab from: http://www.guitartabs.cc/tabs/l/limp_bizkit/behind_blue_eyes_tab_ver_7.html ]
                                                                     
----------------------|--0-------------------|----------------------|
----------------------|-------0---------0----|----------------------|
------------2---------|------------0---------|------------2---------|
-------2---------2----|----------------------|-------2---------2----|
--0-------------------|----------------------|--0-------------------|
----------------------|----------------------|----------------------|


                               
--0-------------------|
-------0---------0----|
------------0---------|
----------------------|
----------------------|
----------------------|


Verse ("no one knows what is like...")
Same thing, but at the end, behind second C chord we play:

|--0---0---0-----------|
|--0---0---0-----------|
|--2---2---2-----------|
|--2---2---2-----------|
|--0---0---0-----------|
|----------------------|  this is a A chord, play it in "spanish" style:)

Chorus ("but my dreams...")




     C    D    G    G       C    D    Em   Em      B    C    D    A             
E||--0----0----3----3----|--0----0----0----0----|-------0----2----0----|
B||--1----3----0----0----|--1----3----0----0----|--0----1----3----2----|
G||--0----2----0----0----|--0----2----0----0----|--4----0----2----2----|
D||--2----0----0----0----|--2----0----2----2----|--4----2----0----2----|
A||--3---------2----2----|--3---------2----2----|--2----3---------0----|
E||------------3----3----|------------0----0----|----------------------|   

No one knows what it's like 
To be the bad man 
To be the sad man 
Behind blue eyes 
No one knows what it's like 
To be hated 
To be fated 
To telling only lies 

But my dreams 
They aren't as empty 
As my conscience seems to be 
I have hours, only lonely 
My love is vengeance 
That's never free 

No one knows what it's like 
To feel these feelings 
Like I do 
And I blame you 
No one bites back as hard 
On their anger 
None of my pain and woe 
Can show through 

But my dreams 
They aren't as empty 
As my conscience seems to be 
I have hours, only lonely 
My love is vengeance 
That's never free 

Discover LIMP say it x4

No one knows what its 
Like to be mistreated 
To be defeated 
Behind blue eyes
And no one knows how to say 
That theyre sorry 
Dont worry 
Im not telling lies 

But my dreams 
They aren't as empty 
As my conscience seems to be 
I have hours, only lonely 
My love is vengeance 
That's never free

No one knows what it's like 
To be the bad man 
To be the sad man 
Behind blue eyes
Comments