Limp Bizkit - Behind Blue Eyes Chords & Tabs

 

Behind Blue Eyes Chords & Tabs

Limp Bizkit Chords & Tabs

Version: 3 Type: Tab 0 ratings
1 star 2 stars 3 stars 4 stars 5 stars
comments

Behind Blue Eyes Tab

   
#----------------------------------PLEASE NOTE---------------------------------#
#This file is the author's own work and represents their interpretation of the #
#song. You may only use this file for private study, scholarship, or research. #
#------------------------------------------------------------------------------#
Behind blue eyes - Limp Bizkit
This is an ace song 2 play n i havnt seen a proper tab on here yet so i thought id put it on 
petersmith304@hotmail.com 
[ Tab from: http://www.guitartabs.cc/tabs/l/limp_bizkit/behind_blue_eyes_tab_ver_3.html ]
Main Riff 1-
      
E|---------0---------------0---------------0---------------0---------------0---------------0-------
B|-----------0---------------0---------3-----3---3-----3-----3---3-----3-----3---3-----3-----3---3-
G|-------0-----0---------0-----0-----2---2-----2-----2---2-----2---------0-----0---------0-----0---
D|-----2---------2-----0---------0-0---------------0-----------------2---------------2-------------
A|---2---------------2---------------------------------------------3---------------3---------------
E|-0---------------3-------------------------------------------------------------------------------

E|---------0----------------0-------||
B|-----0-----0---0------0-----0---0-||
G|-------2-----2----------2-----2---||
D|---2----------------2-------------||
A|-0----------------0---------------||
E|----------------------------------||


Main Riff 2-
   
E|---------0---------------0---------------0---------------0---------------0---------------0-------
B|-----------0---------------0---------3-----3---3-----3-----3---3-----3-----3---3-----3-----3---3-
G|-------0-----0---------0-----0-----2---2-----2-----2---2-----2---------0-----0---------0-----0---
D|-----2---------2-----0---------0-0---------------0-----------------2---------------2-------------
A|---2---------------2---------------------------------------------3---------------3---------------
E|-0---------------3-------------------------------------------------------------------------------

   A
E|-0-0-0-0-0-||
B|-2-2-2-2-2-||
G|-2-2-2-2-2-||
D|-2-2-2-2-2-||
A|-0-0-0-0-0-||
E|-----------||
Comments