Limp Bizkit - Behind Blue Eyes Chords & Tabs

 

Behind Blue Eyes Chords & Tabs

Limp Bizkit Chords & Tabs

Version: 12 Type: Tab 0 ratings
1 star 2 stars 3 stars 4 stars 5 stars
comments

Behind Blue Eyes Tab

   
Behind BLue Eyes as recorded by Limp Bizkit
this is the better version on the internet
the ones i looked at are missing just that lil bit
so i decided ot put it in
enjoy
Standard Tuning

Guitar 1 V Acoustic Guitar (steel)
Guitar 2 V Acoustic Guitar (nylon)

Intro
  e                g                 d                 d           
E---------0-------]---------0-------]---------0-------]---------0-------]
B-----------0-----]-----------3-----]-----3-----3---3-]-----3-----3---3-]
G-------0-----0---]-------0-----0---]---2---2-----2---]---2---2-----2---]
D-----2---------0-]-----0---------0-]-0---------------]-0---------------]
A---2-------------]---2-------------]-----------------]-----------------]
E-0---------------]-3---------------]-----------------]-----------------]
  c                c                 a                 a                    
E---------0-------]---------0-------]---------0-------]---------0-------]
B-----3-----3---3-]-----3-----3---3-]-----0-----0---0-]-----0-----0---0-]
G-------0-----0---]-------0-----0---]-------2-----2---]-------2-----2---]
D---2-------------]---2-------------]---2-------------]---2-------------]
A-3---------------]-3---------------]-0---------------]-0---------------]
E-----------------]-----------------]-----------------]-----------------]

1st Verse  x2
Let ring---------------------------------------------------------------
  e                g                  d                d 
E---------0-------]---------0-------]---------0-------]---------0-------]
B-----------0-----]-----------3-----]-----3-----3---3-]-----3-----3---3-]
G-------0-----0---]-------0-----0---]---2---2-----2---]---2---2-----2---]
D-----2---------0-]-----0---------0-]-0---------------]-0---------------]
A---2-------------]---2-------------]-----------------]-----------------]
E-0---------------]-3---------------]-----------------]-----------------]
  c                c                 a                                   
E---------0-------]---------0-------]-0-0-0---0-0-----]-----------------]
B-----3-----3---3-]-----3-----3---3-]-2-2-2---2-2-----]-----------------]
G-------0-----0---]-------0-----0---]-2-2-2---2-2-----]-----------------]
D---2-------------]---2-------------]-2-2-2---2-2-----]-----------------]
A-3---------------]-3---------------]-0-0-0---0-0-----]-----------------]
E-----------------]-----------------]-----------------]-----------------]


Chorus let ring--------------------------------------------------------
  c                d                 g                 g      
E-0-------0-------]-2-------2-------]-3-------3-----3-]---3-3---3-------]
B-1-------1-------]-3-------3-------]-0-------0-----0-]---0-0---0-------]
G-0-------0-------]-2-------2-------]-0-------0-----0-]---0-0---0-------]
D-2-------2-------]-0-------0-------]-0-------0-----0-]---0-0---0-------]
A-3-------3-------]-----------------]-2-------2-----2-]---2-2---2-------]
E-----------------]-----------------]-3-------3-----3-]---3-3---3-------]

Let ring---------------------------------------------------------------
 c                 d                 e                 e    
E-0-------0-------]-2-------2-------]-0---0-0-0-0---0-]---0-0---0-------]
B-1-------1-------]-3-------3-------]-0---0-0-0-0---0-]---0-0---0-------]
G-0-------0-------]-2-------2-------]-1---1-1-1-1---1-]---1-1---1-------]
D-2-------2-------]-0-------0-------]-2---2-2-2-2---2-]---2-2---2-------]
A-3-------3-------]-----------------]-2---2-2-2-2---2-]---2-2---2-------]
E-----------------]-----------------]-0---0-0-0-0---0-]---0-0---0-------]
  b4               b4                c                 c              
E-2-------2-----2-]---2-2---2-------]-0-------0-----0-]---0-0---0-------]
B-3-------3-----3-]---3-3---3-------]-1-------1-----1-]---1-1---1-------]
G-4-------4-----4-]---4-4---4-------]-0-------0-----0-]---0-0---0-------]
D-4-------4-----4-]---4-4---4-------]-2-------2-----2-]---2-2---2-------]
A-2-------2-----2-]---2-2---2-------]-3-------3-----3-]---3-3---3-------]
E-----------------]-----------------]-----------------]-----------------]

                                     ---------------x2---------------- 
  d                d                 a                 a       
E-2-------2-----2-]---2-2---2-------]-0-------0-----0-]---0-0---0-------]
B-3-------3-----3-]---3-3---3-------]-2-------2-----2-]---2-2---2-------]
G-2-------2-----2-]---2-2---2-------]-2-------2-----2-]---2-2---2-------]
D-0-------0-----0-]---0-0---0-------]-2-------2-----2-]---2-2---2-------]
A-----------------]-----------------]-0-------0-----0-]---0-0---0-------]
E-----------------]-----------------]-----------------]-----------------]


2nd Verse  x2
  e                g                 d                  d   
E---------0-------]---------0-------]---------0-------]---------0-------]
B-----------0-----]-----------3-----]-----3-----3---3-]-----3-----3---3-]
G-------0-----0---]-------0-----0---]---2---2-----2---]---2---2-----2---]
D-----2---------0-]-----0---------0-]-0---------------]-0---------------]
A---2-------------]---2-------------]-----------------]-----------------]
E-0---------------]-3---------------]-----------------]-----------------]
  c                c                 a                 a 
E---------0-------]---------0-------]---------0-------]---------0-------]
B-----3-----3---3-]-----3-----3---3-]-----0-----0---0-]-----0-----0---0-]
G-------0-----0---]-------0-----0---]-------2-----2---]-------2-----2---]
D---2-------------]---2-------------]---2-------------]---2-------------]
A-3---------------]-3---------------]-0---------------]-0---------------]
E-----------------]-----------------]-----------------]-----------------]


Chorus let ring--------------------------------------------------------
  c                d                 g                 g 
E-0-------0-------]-2-------2-------]-3-------3-----3-]---3-3---3-------]
B-1-------1-------]-3-------3-------]-0-------0-----0-]---0-0---0-------]
G-0-------0-------]-2-------2-------]-0-------0-----0-]---0-0---0-------]
D-2-------2-------]-0-------0-------]-0-------0-----0-]---0-0---0-------]
A-3-------3-------]-----------------]-2-------2-----2-]---2-2---2-------]
E-----------------]-----------------]-3-------3-----3-]---3-3---3-------]
[ Tab from: http://www.guitartabs.cc/tabs/l/limp_bizkit/behind_blue_eyes_tab_ver_12.html ]
Let ring---------------------------------------------------------------
  c                d                 e                 e 
E-0-------0-------]-2-------2-------]-0---0-0-0-0---0-]---0-0---0-------]
B-1-------1-------]-3-------3-------]-0---0-0-0-0---0-]---0-0---0-------]
G-0-------0-------]-2-------2-------]-1---1-1-1-1---1-]---1-1---1-------]
D-2-------2-------]-0-------0-------]-2---2-2-2-2---2-]---2-2---2-------]
A-3-------3-------]-----------------]-2---2-2-2-2---2-]---2-2---2-------]
E-----------------]-----------------]-0---0-0-0-0---0-]---0-0---0-------]
  b4               b4                c                 c 
E-2-------2-----2-]---2-2---2-------]-0-------0-----0-]---0-0---0-------]
B-3-------3-----3-]---3-3---3-------]-1-------1-----1-]---1-1---1-------]
G-4-------4-----4-]---4-4---4-------]-0-------0-----0-]---0-0---0-------]
D-4-------4-----4-]---4-4---4-------]-2-------2-----2-]---2-2---2-------]
A-2-------2-----2-]---2-2---2-------]-3-------3-----3-]---3-3---3-------]
E-----------------]-----------------]-----------------]-----------------]

                                     ---------------x2----------------
  d                d                 a                 a           
E-2-------2-----2-]---2-2---2-------]-0-------0-----0-]---0-0---0-------]
B-3-------3-----3-]---3-3---3-------]-2-------2-----2-]---2-2---2-------]
G-2-------2-----2-]---2-2---2-------]-2-------2-----2-]---2-2---2-------]
D-0-------0-----0-]---0-0---0-------]-2-------2-----2-]---2-2---2-------]
A-----------------]-----------------]-0-------0-----0-]---0-0---0-------]
E-----------------]-----------------]-----------------]-----------------]


Bridge  x2
  e                 g                d                 d   
E---------0-------]---------0-------]---------0-------]---------0-------]
B-----------0-----]-----------3-----]-----3-----3---3-]-----3-----3---3-]
G-------0-----0---]-------0-----0---]---2---2-----2---]---2---2-----2---]
D-----2---------0-]-----0---------0-]-0---------------]-0---------------]
A---2-------------]---2-------------]-----------------]-----------------]
E-0---------------]-3---------------]-----------------]-----------------]
  c                c                 a                 a 
E---------0-------]---------0-------]---------0-------]---------0-------]
B-----3-----3---3-]-----3-----3---3-]-----0-----0---0-]-----0-----0---0-]
G-------0-----0---]-------0-----0---]-------2-----2---]-------2-----2---]
D---2-------------]---2-------------]---2-------------]---2-------------]
A-3---------------]-3---------------]-0---------------]-0---------------]
E-----------------]-----------------]-----------------]-----------------]


3rd Verse  x2
  e                g                 d                 d                  
E---------0-------]---------0-------]---------0-------]---------0-------]
B-----------0-----]-----------3-----]-----3-----3---3-]-----3-----3---3-]
G-------0-----0---]-------0-----0---]---2---2-----2---]---2---2-----2---]
D-----2---------0-]-----0---------0-]-0---------------]-0---------------]
A---2-------------]---2-------------]-----------------]-----------------]
E-0---------------]-3---------------]-----------------]-----------------]
 c                 c                 a                 a          
E---------0-------]---------0-------]---------0-------]---------0-------]
B-----3-----3---3-]-----3-----3---3-]-----0-----0---0-]-----0-----0---0-]
G-------0-----0---]-------0-----0---]-------2-----2---]-------2-----2---]
D---2-------------]---2-------------]---2-------------]---2-------------]
A-3---------------]-3---------------]-0---------------]-0---------------]
E-----------------]-----------------]-----------------]-----------------]




Chorus let ring--------------------------------------------------------
  c                d                 g                 g 
E-0-------0-------]-2-------2-------]-3-------3-----3-]---3-3---3-------]
B-1-------1-------]-3-------3-------]-0-------0-----0-]---0-0---0-------]
G-0-------0-------]-2-------2-------]-0-------0-----0-]---0-0---0-------]
D-2-------2-------]-0-------0-------]-0-------0-----0-]---0-0---0-------]
A-3-------3-------]-----------------]-2-------2-----2-]---2-2---2-------]
E-----------------]-----------------]-3-------3-----3-]---3-3---3-------]

Let ring---------------------------------------------------------------
  c                d                 e                 e 
E-0-------0-------]-2-------2-------]-0---0-0-0-0---0-]---0-0---0-------]
B-1-------1-------]-3-------3-------]-0---0-0-0-0---0-]---0-0---0-------]
G-0-------0-------]-2-------2-------]-1---1-1-1-1---1-]---1-1---1-------]
D-2-------2-------]-0-------0-------]-2---2-2-2-2---2-]---2-2---2-------]
A-3-------3-------]-----------------]-2---2-2-2-2---2-]---2-2---2-------]
E-----------------]-----------------]-0---0-0-0-0---0-]---0-0---0-------]
  b4               b4                c                 c 
E-2-------2-----2-]---2-2---2-------]-0-------0-----0-]---0-0---0-------]
B-3-------3-----3-]---3-3---3-------]-1-------1-----1-]---1-1---1-------]
G-4-------4-----4-]---4-4---4-------]-0-------0-----0-]---0-0---0-------]
D-4-------4-----4-]---4-4---4-------]-2-------2-----2-]---2-2---2-------]
A-2-------2-----2-]---2-2---2-------]-3-------3-----3-]---3-3---3-------]
E-----------------]-----------------]-----------------]-----------------]

                                     ---------------x2----------------
  d                d                 a                 a       
E-2-------2-----2-]---2-2---2-------]-0-------0-----0-]---0-0---0-------]
B-3-------3-----3-]---3-3---3-------]-2-------2-----2-]---2-2---2-------]
G-2-------2-----2-]---2-2---2-------]-2-------2-----2-]---2-2---2-------]
D-0-------0-----0-]---0-0---0-------]-2-------2-----2-]---2-2---2-------]
A-----------------]-----------------]-0-------0-----0-]---0-0---0-------]
E-----------------]-----------------]-----------------]-----------------]


Outro
Let ring---------------------------------------------------------------
  e                g                  d                d 
E---------0-------]---------0-------]---------0-------]---------0-------]
B-----------0-----]-----------3-----]-----3-----3---3-]-----3-----3---3-]
G-------0-----0---]-------0-----0---]---2---2-----2---]---2---2-----2---]
D-----2---------0-]-----0---------0-]-0---------------]-0---------------]
A---2-------------]---2-------------]-----------------]-----------------]
E-0---------------]-3---------------]-----------------]-----------------]

Let it ring out---------------------------------------------------------
 c                  c                a 
E---------0-------]---------0-------]-0-0-0---0-0-----]-----------------]
B-----3-----3---3-]-----3-----3---3-]-2-2-2---2-2-----]-----------------]
G-------0-----0---]-------0-----0---]-2-2-2---2-2-----]-----------------]
D---2-------------]---2-------------]-2-2-2---2-2-----]-----------------]
A-3---------------]-3---------------]-0-0-0---0-0-----]-----------------]
E-----------------]-----------------]-----------------]-----------------]

-----------------
E-----------------]
B-----------------]
G-----------------]
D-----------------]
A-----------------]
E-----------------]
Comments