Limp Bizkit - Behind Blue Eyes Chords & Tabs

 

Behind Blue Eyes Chords & Tabs

Limp Bizkit Chords & Tabs

Version: 11 Type: Tab 0 ratings
1 star 2 stars 3 stars 4 stars 5 stars
comments

Behind Blue Eyes Tab

   
Title:     Behind Blue Eyes
Artist:    Limp Bizkit
Album:     Results May Vary
Track:     15

Tabbed by: CuBe
Tuning:    Standard (EADGBe)


Intro

1-----0----------0-------------0--------------0-------------0---------------
2----0-0--------3-3--------3-----3-3------3----3-3----3------3---3----------
3--------0----------0-----2--2----2-----2--2----2--------0-----0------------
4---2-----2---0------0--0-------------0--------------2----------------------
5--2---------2--------------------------------------3-----------------------
6-0---------3---------------------------------------------------------------

1-------0-----------0--------------0----------------------------------------
2----3---3--3----0----0--0------0----0--0-----------------------------------
3-----0---0-------2----2---------2----2-------------------------------------
4--2-----------2--------------2---------------------------------------------
5-3-----------0-------------0-----------------------------------------------
6---------------------------------------------------------------------------


Verse I

1-----0----------0-------------0--------------0-------------0---------------
2----0-0--------3-3--------3-----3-3------3----3-3----3------3---3----------
3--------0----------0-----2--2----2-----2--2----2--------0-----0------------
4---2-----2---0------0--0-------------0--------------2----------------------
5--2---------2--------------------------------------3-----------------------
6-0---------3---------------------------------------------------------------

1-------0-----000--0-0------------------------------------------------------
2----3---3----222--2-2------------------------------------------------------
3-----0---0---222--2-2------------------------------------------------------
4--2----------222--2-2------------------------------------------------------
5-3-----------000--0-0------------------------------------------------------
6---------------------------------------------------------------------------


Verse II

1-----0----------0-------------0--------------0-------------0---------------
2----0-0--------3-3--------3-----3-3------3----3-3----3------3---3----------
3--------0----------0-----2--2----2-----2--2----2--------0-----0------------
4---2-----2---0------0--0-------------0--------------2----------------------
5--2---------2--------------------------------------3-----------------------
6-0---------3---------------------------------------------------------------

1-------0-----000--0-0------------------------------------------------------
2----3---3----222--2-2------------------------------------------------------
3-----0---0---222--2-2------------------------------------------------------
4--2----------222--2-2------------------------------------------------------
5-3-----------000--0-0------------------------------------------------------
6---------------------------------------------------------------------------



Chorus

        C     D                   G                  C        D      Em

1-------0-----0-------------------3------------------0--------0------0------
2-------1-----3-------------------0------------------1--------3------0------
3-------0-----2-------------------0------------------0--------2------0------
4-------2-----0-------------------0------------------2--------0------2------
5-------3-------------------------2------------------3---------------2------
6-------0-------------------------3------------------0---------------0------
But my dreams,    they aren't as empty     as my conscience seems to be

         B           C                   D                      A

1--------------------0-------------------0----------------------0-----------
2--------0-----------1-------------------3----------------------0-----------
3--------4-----------0-------------------2----------------------2-----------
4--------4-----------2-------------------0----------------------2-----------
5--------2-----------3------------------------------------------0-----------
6---------------------------------------------------------------------------
I have hours, only lonely, my love is vengaence,   that's never free...


Verse III

1-----0----------0-------------0--------------0-------------0---------------
2----0-0--------3-3--------3-----3-3------3----3-3----3------3---3----------
3--------0----------0-----2--2----2-----2--2----2--------0-----0------------
4---2-----2---0------0--0-------------0--------------2----------------------
5--2---------2--------------------------------------3-----------------------
6-0---------3---------------------------------------------------------------

1-------0-----------0--------------0----------------------------------------
2----3---3--3----0----0--0------0----0--0-----------------------------------
3-----0---0-------2----2---------2----2-------------------------------------
4--2-----------2--------------2---------------------------------------------
5-3-----------0-------------0-----------------------------------------------
6---------------------------------------------------------------------------


Verse IV

1-----0----------0-------------0--------------0-------------0---------------
2----0-0--------3-3--------3-----3-3------3----3-3----3------3---3----------
3--------0----------0-----2--2----2-----2--2----2--------0-----0------------
4---2-----2---0------0--0-------------0--------------2----------------------
5--2---------2--------------------------------------3-----------------------
6-0---------3---------------------------------------------------------------

1-------0-----------0--------------0----------------------------------------
2----3---3--3----0----0--0------0----0--0-----------------------------------
3-----0---0-------2----2---------2----2-------------------------------------
4--2-----------2--------------2---------------------------------------------
5-3-----------0-------------0-----------------------------------------------
6---------------------------------------------------------------------------


Chorus

        C     D                   G                  C        D      Em
[ Tab from: http://www.guitartabs.cc/tabs/l/limp_bizkit/behind_blue_eyes_tab_ver_11.html ]
1-------0-----0-------------------3------------------0--------0------0------
2-------1-----3-------------------0------------------1--------3------0------
3-------0-----2-------------------0------------------0--------2------0------
4-------2-----0-------------------0------------------2--------0------2------
5-------3-------------------------2------------------3---------------2------
6-------0-------------------------3------------------0---------------0------
But my dreams,    they aren't as empty     as my conscience seems to be

         B           C                   D                      A

1--------------------0-------------------0----------------------0-----------
2--------0-----------1-------------------3----------------------0-----------
3--------4-----------0-------------------2----------------------2-----------
4--------4-----------2-------------------0----------------------2-----------
5--------2-----------3------------------------------------------0-----------
6---------------------------------------------------------------------------
I have hours, only lonely, my love is vengaence,   that's never free...


Verse V

1-----0----------0-------------0--------------0-------------0---------------
2----0-0--------3-3--------3-----3-3------3----3-3----3------3---3----------
3--------0----------0-----2--2----2-----2--2----2--------0-----0------------
4---2-----2---0------0--0-------------0--------------2----------------------
5--2---------2--------------------------------------3-----------------------
6-0---------3---------------------------------------------------------------

1-------0-----------0--------------0----------------------------------------
2----3---3--3----0----0--0------0----0--0-----------------------------------
3-----0---0-------2----2---------2----2-------------------------------------
4--2-----------2--------------2---------------------------------------------
5-3-----------0-------------0-----------------------------------------------
6---------------------------------------------------------------------------


Verse VI

1-----0----------0-------------0--------------0-------------0---------------
2----0-0--------3-3--------3-----3-3------3----3-3----3------3---3----------
3--------0----------0-----2--2----2-----2--2----2--------0-----0------------
4---2-----2---0------0--0-------------0--------------2----------------------
5--2---------2--------------------------------------3-----------------------
6-0---------3---------------------------------------------------------------

1-------0-----------0--------------0----------------------------------------
2----3---3--3----0----0--0------0----0--0-----------------------------------
3-----0---0-------2----2---------2----2-------------------------------------
4--2-----------2--------------2---------------------------------------------
5-3-----------0-------------0-----------------------------------------------
6---------------------------------------------------------------------------


Verse VII

1-----0----------0-------------0--------------0-------------0---------------
2----0-0--------3-3--------3-----3-3------3----3-3----3------3---3----------
3--------0----------0-----2--2----2-----2--2----2--------0-----0------------
4---2-----2---0------0--0-------------0--------------2----------------------
5--2---------2--------------------------------------3-----------------------
6-0---------3---------------------------------------------------------------

1-------0-----------0--------------0----------------------------------------
2----3---3--3----0----0--0------0----0--0-----------------------------------
3-----0---0-------2----2---------2----2-------------------------------------
4--2-----------2--------------2---------------------------------------------
5-3-----------0-------------0-----------------------------------------------
6---------------------------------------------------------------------------


Verse VIII

1-----0----------0-------------0--------------0-------------0---------------
2----0-0--------3-3--------3-----3-3------3----3-3----3------3---3----------
3--------0----------0-----2--2----2-----2--2----2--------0-----0------------
4---2-----2---0------0--0-------------0--------------2----------------------
5--2---------2--------------------------------------3-----------------------
6-0---------3---------------------------------------------------------------

1-------0-----------0--------------0----------------------------------------
2----3---3--3----0----0--0------0----0--0-----------------------------------
3-----0---0-------2----2---------2----2-------------------------------------
4--2-----------2--------------2---------------------------------------------
5-3-----------0-------------0-----------------------------------------------
6---------------------------------------------------------------------------


Chorus

        C     D                   G                  C        D      Em

1-------0-----0-------------------3------------------0--------0------0------
2-------1-----3-------------------0------------------1--------3------0------
3-------0-----2-------------------0------------------0--------2------0------
4-------2-----0-------------------0------------------2--------0------2------
5-------3-------------------------2------------------3---------------2------
6-------0-------------------------3------------------0---------------0------
But my dreams,    they aren't as empty      as my conscience seems to be

         B           C                   D                      A

1--------------------0-------------------0----------------------0-----------
2--------0-----------1-------------------3----------------------0-----------
3--------4-----------0-------------------2----------------------2-----------
4--------4-----------2-------------------0----------------------2-----------
5--------2-----------3------------------------------------------0-----------
6---------------------------------------------------------------------------
I have hours, only lonely, my love is vengaence,   that's never free...


Verse IX

1-----0----------0-------------0--------------0-------------0---------------
2----0-0--------3-3--------3-----3-3------3----3-3----3------3---3----------
3--------0----------0-----2--2----2-----2--2----2--------0-----0------------
4---2-----2---0------0--0-------------0--------------2----------------------
5--2---------2--------------------------------------3-----------------------
6-0---------3---------------------------------------------------------------

1-------0-----000--0-0------------------------------------------------------
2----3---3----222--2-2------------------------------------------------------
3-----0---0---222--2-2------------------------------------------------------
4--2----------222--2-2------------------------------------------------------
5-3-----------000--0-0------------------------------------------------------
6---------------------------------------------------------------------------
Comments