Limp Bizkit - Behind Blue Eyes Chords & Tabs

 

Behind Blue Eyes Chords & Tabs

Limp Bizkit Chords & Tabs

Version: 2 Type: Bass Tab 0 ratings
1 star 2 stars 3 stars 4 stars 5 stars
comments

Behind Blue Eyes Bass Tab

-------------------------------------------------------------------------------
			     BEHIND BLUE EYES as recorded by LIMP BIZKIT
-------------------------------------------------------------------------------

Tabbed By : Lester Klaassen
e-mail: formulester@hotmail.com



G|---------------------------------------------------------------------------|
D|-------------------------3-3-3-0-0-0-2-------------------------------------|
A|-0-0-0-3-3-3---------------------------------------------------------------|
E|-------------3-3-3-3-3-3---------------------------------------------------|
[ Tab from: http://www.guitartabs.cc/tabs/l/limp_bizkit/behind_blue_eyes_btab_ver_2.html ]
G|---------------------------------------------------------------------------|
D|-------------------------3-3-3-0-0-0-2-2-2-2-2-2---------------------------|
A|-0-0-0-3-3-3---------------------------------------------------------------|
E|-------------3-3-3-3-3-3---------------------------------------------------|

G|---------------------------------------------------------------------------|
D|-------3-0-2---------------------------------------------------------------|
A|-0-3-----------------------------------------------------------------------|
E|-----3---------------------------------------------------------------------|

If you have q's, mail me formulester@hotmail.com
===============================================================================
Comments