Limp Bizkit - Behind Blue Eyes Chords & Tabs

 

Behind Blue Eyes Chords & Tabs

Limp Bizkit Chords & Tabs

Version: 1 Type: Bass Tab 0 ratings
1 star 2 stars 3 stars 4 stars 5 stars
comments

Behind Blue Eyes Bass Tab

Hey, this is my first tab, so rate it please!

Verse
G|-------2~~------2-|
D|-------------2~---|
A|-----------3~-----|
E|-0~-3~------------|

Chorus
G|-----------------|
D|-----------------|
A|------2~-2~-2~-0~|
E|-3~--------------|
[ Tab from: http://www.guitartabs.cc/tabs/l/limp_bizkit/behind_blue_eyes_btab.html ]
G|-----------------|
D|-----2~-2~-2~----|
A|---------------0~|
E|-3~--------------|

G|------------------------------|
D|-2~-2~-2~---------------------|
A|-----------------3~-3~-3~-----|
E|----------------------------0~|

Repeat this throughout the song... It sounds good to me
Comments