Limp Bizkit - 9 Teen 90 Nine Chords & Tabs

 

9 Teen 90 Nine Chords & Tabs

Limp Bizkit Chords & Tabs

Version: 2 Type: Bass Tab 0 ratings
1 star 2 stars 3 stars 4 stars 5 stars
comments

9 Teen 90 Nine Bass Tab

Song: 9 teen 90 nine
Artist: Limp Bizkit
Album: Significant Other
Tabbed By : Max Power

There are two ways to play this song. You could either tune down 1 and half 
steps or you could just play at C#. I tabbed it out as if i were playing it 
on C#. Listen to the song to get the rhythm. 

Intro
G--------------------------------------------------------------------
D*-----------------------------------------------------------------*
A*-4-4-4-4-4-4--4--4-4-4-4----------------------------------* 
E-------------------------------------------------------------------

Verse
G---------------------------------------------------------------
D*-------------------------------------------------------------*
A*-4----4----4----4----4----4----4----4----4----4----4--*
E---------------------------------------------------------------
[ Tab from: http://www.guitartabs.cc/tabs/l/limp_bizkit/9_teen_90_nine_btab_ver_2.html ]
Chorus                              x3
G--------------------------------------------------------------
D*---------------------5------*------------------------------
A*4-4-7-6-5-4-4-7---------*---4-4-7-6-5-4-4-6-------
E--------------------------------------------------------------

Outro
G-----------------------------------------------------------
D*---------------------------------------------------------*
A*-4-4-4-----4-4-4----4-4-4----4-4-4----4-4-4-----*
E-----------------------------------------------------------

G--------------------------------------------------------------
D*---------------5--5----------------------------------------*
A*-4---6-7-4----4------------------------------------------*
E--------------------------------------------------------------

This 100% correct. The only thing that could be off is how many times you play
D-------------------------------------------------------------------
A-4----6-7-4------------------------------------------------------
on the outro its either one or two.
Comments