Limp - Bag Lunch Chords & Tabs

 

Bag Lunch Chords & Tabs

Limp Chords & Tabs

Version: 2 Type: Bass Tab 0 ratings
1 star 2 stars 3 stars 4 stars 5 stars
comments

Bag Lunch Bass Tab

   
Artist: Limp
Song: Bag Lunch
Album: Guitarded
Tabbed by: Lara el bassisto

this is a pretty cool song, there's not really any limp stuff out there even 
tho its ass kickin shit
e-mail me if u have any questions or comments, maybe u just want to tell me 
what u had for lunch, anyways it's punkette1@hotmail.com

INTRO
G ||----|-----------------------------------------------
D ||----|-----------------------------------------------
A ||----|-----------------------------------------------
E ||-7-5|-3333-3-2222-2-6666-6-77-55-3333-3-2222-2-6-7-5 (2x)
[ Tab from: http://www.guitartabs.cc/tabs/l/limp/bag_lunch_btab_ver_2.html ]
VERSE
G ||---------------------------
D ||---------------------------
A ||---------------------------
E ||-3-3-33-2-2-22-6-6-66-77-55  (4x)

CHORUS
G ||----------------------------------------------------------------
D ||----------------------------------------------------------------
A ||---------5-5-5-5-0-0-0-0-----------------5-5-5-5-7-7-7-7-7-7-7-7
E ||-3-3-3-3-----------------2-2-0-0-3-3-3-3------------------------

G ||----------------------------------------------------------------
D ||-------------------------------------------------12-------------
A ||---------5-5-5-5-0-0-0-0----------------------12----12----------
E ||-3-3-3-3-----------------2-2-0-0-3---7-7-9-10----------12-------

BRIDGE
G ||-----------
D ||-----------
A ||-----------
E ||-0----7-5-2


yea, that's basically it...........hopefully
Comments