Limozeen - Because Its Midnite Chords & Tabs

 

Because Its Midnite Chords & Tabs

Limozeen Chords & Tabs

Version: 1 Type: Tab 0 ratings
1 star 2 stars 3 stars 4 stars 5 stars
comments

Because Its Midnite Tab

-------------------------------------------------------------------------------
			     Because It's Midnight - Limozeen
-------------------------------------------------------------------------------
Tabbed by: Jaequan Hooligard
Email: JHooligard@gmail.com

Tuning: Standard

Intro:
e|------------------------------16-13--13--13-11-16--11-13-16-11-13-16-11-13-|
B|---------16-16-13-16-13-16-13----------------------------------------------|
G|15~15-13-------------------------------------------------------------------|
D|---------------------------------------------------------------------------|
A|---------------------------------------------------------------------------|
E|---------------------------------------------------------------------------|
[ Tab from: http://www.guitartabs.cc/tabs/l/limozeen/because_its_midnite_tab.html ]
e|16-18-20-------------------------------------------------------------------|
B|---------------------------------------------------------------------------|
G|---------------------------------------------------------------------------|
D|---------------------------------------------------------------------------|
A|---------------------------------------------------------------------------|
E|---------------------------------------------------------------------------|

The rest of the song:
e|---------------------------------------------------------------------------|
B|---------------------------------------------------------------------------|
G|---------------------------------------------------------------------------|
D|7-----10----5--------------------------------------------------------------|
A|7-----10----5--------------------------------------------------------------|
E|5-----8-----3--------------------------------------------------------------|

Just fool around with these three power chords until you get the song down.  Its really easy.

| ~  vibrato

All copywrights to Harmless Junk, INC.  And the Brothers Chaps. www.homestarrunner.com
Comments