Limblifter - Tinfoil Chords & Tabs

 

Tinfoil Chords & Tabs

Limblifter Chords & Tabs

Version: 1 Type: Bass Tab 0 ratings
1 star 2 stars 3 stars 4 stars 5 stars
comments

Tinfoil Bass Tab

   
Tinfoil-Limblifter
Tabbed by Yerp
rhergott@bserv.com email me with any comments or questions.
Tuning: E A D G

Just alternate between these 3 riffs.

Main Riff
G|-----------|
D|-----------|
A|-333-------|
E|-----000-0-|
[ Tab from: http://www.guitartabs.cc/tabs/l/limblifter/tinfoil_btab.html ]
Verse Riff
G|--------------------------------------------------|
D|--------------------------------------------------|
A|-------22-22-33-33-------------22-22-0000-2-33333-|
E|-33-33-------------00-00-33-33--------------------|

Chorus
G|-----------------|
D|-----------------|
A|-----------------|
E|-333-222-111-000-|

At the end finish up with:
G|----------------|
D|----------------|
A|-333-------33-2-|
E|-----000-0------|

Comments