Lillix - What I Like About You Chords & Tabs

 

What I Like About You Chords & Tabs

Lillix Chords & Tabs

Version: 4 Type: Tab

What I Like About You Tab

   
Author/Artist: Lillix
Title: What I Like About You

Intro/Ending riff
e|----------------------------------------------------------------------------|
B|-xx-10-9-10-xx--------------------10-9-10-xx---------------xx-10-9-10-xx----|
G|-xx--9-9--9-xx-7-x-7-6-6----------9--9-9--xx-7-7-6---------xx--9-9--9-xx--7-|
D|---------------7-x-7-7-7---------------------7-7-7------------------------7-|
A|----------------------------------------------------------------------------|
E|----------------------------------------------------------------------------|


----------------------------------------|------------------------|
-----------------10-9-10-xx-------------|------------------------|
-x-7-6-6----------9-9-9--xx-7-7-6-------|------------------------|
-x-7-7-7--------------------7-7-7-------|----2--- 2nd. Guitar ~--|
----------------------------------------|----2-------------------| 
----------------------------------------|----0-------------------| 
during the "Hey!" let this ring and PM it
a coupple of times before the chorus/pre verse

                               Hey!
Chorus
e|------------------------|      X4
B|------------------------|
G|----------7-7-----------|
D|-2-2--7-7-7-7-7-7-7-7---|
A|-2-2--7-7-5-5-7-7-7-7---|
E|-0-0--5-5-----5-5-5-5---|
    E    A   D     A      : Chords
[ Tab from: http://www.guitartabs.cc/tabs/l/lillix/what_i_like_about_you_tab_ver_4.html ]
Verse (palm muted)
e|------------------------|------------         X 4--|
B|------------------------|--------------------------|
G|-----------77777--------|--7--7--7-----------------|
D|-2222-777--77777-7777---|--7--7--7-----------------|
A|-2222-777--55555-7777---|--5--5--5-----------------|  on the last one, let those three notes ring
E|-0000-555--------5555---|--------------------------|
   E     A     D     A    : Chords

I took the liberty of transcribing the keyboard solo:
e|----------------------------------------------------------------------------|
B|-2/15-14-15----14-15-14-12-14-15-15-14-12----15-14-15----14-15-14-12-14-15--|
G|----------------------------------------------------------------------------|
D|----------------------------------------------------------------------------|
A|----------------------------------------------------------------------------|
E|----------------------------------------------------------------------------|
       Play

------------------------------------------------------------------------------|
-15-14-12-10----------------15-14-12-15-15-14-14----------------15-14-12-15---|
----------------16-14-16-14-------------------------16-14-16-14---------------|
------------------------------------------------------------------------------|
------------------------------------------------------------------------------|
------------------------------------------------------------------------------|
      Chorus

------------------------------------------------------------------------------|
-15-14-14----------------15-14-12-15-15-14-14----------------15-14-12-15-15---|
-------------16-14-16-14-------------------------16-14-16-14------------------|
------------------------------------------------------------------------------|
------------------------------------------------------------------------------|
------------------------------------------------------------------------------|
     Behind the Solo!

--------|
-14-14--|
--------|
--------|
--------|
--------|