Lillix - What I Like About You Chords & Tabs

 

What I Like About You Chords & Tabs

Lillix Chords & Tabs

Version: 2 Type: Tab 0 ratings
1 star 2 stars 3 stars 4 stars 5 stars
comments

What I Like About You Tab

   
Artist: Lillix
Song: "What i like about you" 
standard tuning: e a d g b e

Tabbed by Deanna:
dina_420@hotmail.com

My band plays this song with 2 guitars, so this version is for two guitars,
but you can just play it with one.

(Intro) GTR 1:
e-----------------------------------------------------------
b--x--x--10--9--10------------------------------------------
g--x--x---9---9---9-----------------------------------------
d----------------------x--x--7--7--7--7--6--6--6------------
a----------------------x--x--7--7--7--7--7--7--7------------
e-----------------------------------------------------------

e------------------------------------------------------------
b--x--x--10--9--10-------------------------------------------
g--x--x---9---9---9------------------------------------------
d----------------------x--x--7--x--6------------------------- 
a----------------------x--x--7--x--7-------------------------
e------------------------------------------------------------

00:06 
GTR 2: E5~

e-----------------------------------------------------------
b--x--x--10--9--10------------------------------------------
g--x--x---9---9---9-----------------------------------------
d----------------------x--x--7--7--7--7--6--6--6------------
a----------------------x--x--7--7--7--7--7--7--7------------
e-----------------------------------------------------------

e-----------------------------------------------------------
b--x--x--10--9--10------------------------------------------
g--x--x---9---9---9-----------------------------------------
d----------------------x--x--7--x--6------------------------  
a----------------------x--x--7--x--7------------------------
e-----------------------------------------------------------


00:12

GTR 1: E5, A5, D5 (x4)
GTR 2: e, a, d, a  (x4)

(Verse) palm muted
[ Tab from: http://www.guitartabs.cc/tabs/l/lillix/what_i_like_about_you_tab_ver_2.html ]
GTR 1: E5, A5, D5, A5 (x4)

00:33 
GTR 2: e, a

(chorus)

GTR 1: E5, A5, D5~ (x4)
GTR 2: e, a, d, a (x4)

00:47
(Verse)

00:58
(Chorus)

01:15
(Keyboard Solo) play chorus chords

01:45
(Bass Solo) 

g--------------------------------
d--------------------------------
a----------------5--5-5---------- (repeat 4x)
e-0-0-0-0-5-5-5--------5-5-5-5-5- 


01:50
GTR 1: E5, A5, D5 (palm muted)


01:54
GTR 2: E (upstroke)

02:26
(Outro) GTR 1:
e-----------------------------------------------------------
b--x--x--10--9--10------------------------------------------
g--x--x---9---9---9-----------------------------------------
d----------------------x--x--7--7--7--7--6--6--6------------
a----------------------x--x--7--7--7--7--7--7--7------------
e-----------------------------------------------------------

e------------------------------------------------------------
b--x--x--10--9--10-------------------------------------------
g--x--x---9---9---9------------------------------------------
d----------------------x--x--7--x--6-------------------------  
a----------------------x--x--7--x--7-------------------------
e------------------------------------------------------------

e-----------------------------------------------------------
b--x--x--10--9--10------------------------------------------
g--x--x---9---9---9-----------------------------------------
d----------------------x--x--7--7--7--7--6--6--6------------
a----------------------x--x--7--7--7--7--7--7--7------------
e-----------------------------------------------------------

e------------------------------------------------------------
b--x--x--10--9--10-------------------------------------------
g--x--x---9---9---9------------------------------------------
d----------------------x--x--7--x--6-------------------------  
a----------------------x--x--7--x--7-------------------------
e------------------------------------------------------------

02:44
Comments