Lillix - What I Like About You Chords & Tabs

 

What I Like About You Chords & Tabs

Lillix Chords & Tabs

Version: 1 Type: Bass Tab 0 ratings
1 star 2 stars 3 stars 4 stars 5 stars
comments

What I Like About You Bass Tab

---------------------------------------------------------------------------
		    WHAT I LIKE ABOUT YOU - Lillix
---------------------------------------------------------------------------

Tabbed by: Rachel, credence_dirtwater@hotmail.com

Note: This song deals with the fifth fret, meaning there are alternate ways
to play it.  Example:

G|--------------------|    G|--------------------| 
D|----------0-0-------|    D|--------------------|                
A|-----0-0-------0-0--| =  A|----------5-5-------|           
E|--0-----------------|    E|--0--5-5-------5-5--|

And a couple others, but you probably knew what I was talking about anyway.  I
used the fifth fret instead of all open strings, but you can play what you find
easiest.  If this tab sucks, I'm sorry, I tried.

Tuning: Standard

Intro:  (Bass starts at :06 seconds)

[ Tab from: http://www.guitartabs.cc/tabs/l/lillix/what_i_like_about_you_btab.html ]
G|--------------|
D|--------------|
A|--------------|
E|-0------------|

G|---------------------------|
D|---------------------------|
A|---------------------------|
E|-0-0-0-0-0-0-0-0-0-0-0-0-0-| Hey!

G|---------------------|
D|---------------------|
A|-----------5-5-------|
E|--0---5-5-------5-5--| X4

Verse:  (:22)

What I like about you....
G|--------------------------------|
D|--------------------------------|
A|----------------5--5-5----------|
E|-0-0-0-0-5-5-5--------5-5-5-5-5-| X4


Chorus: (:35)

Keep on whispering in my ear...
G|---------------------|
D|---------------------|
A|-----------5-5-------|
E|--0---5-5-------5-5--| X4

Repeat Verse  (:46)

Repeat Chorus (:58)

Repeat Chorus for keyboard solo (1:15)

Bass solo is the verse part (1:38)

Repeat Chorus until end of song (1:57 to 2:45)
============================================================================
Comments