Lillix - Promises Chords & Tabs

 

Promises Chords & Tabs

Lillix Chords & Tabs

Version: 1 Type: Tab 0 ratings
1 star 2 stars 3 stars 4 stars 5 stars
comments

Promises Tab

-------------------------------------------------------------------------------
			     PROMISES - Lillix
-------------------------------------------------------------------------------

Tabbed by: spongebob20
Email:-_-_-_-_-_

Tuning: normal eadgbe
 album:falling uphill, website: http://www.lillix.com
 (:)
This is my first tab. I know its not the whole song but its pretty good i think try it.
E-----------------3-------------|------------------3------------------
B--------3------------3-------3-|--------3-------------3--------3-----
G-------------------------0-----|---------------------------0---------
D-------------0-----------------|-------------0-----------------------
A-------------------------------|-------------------------------------
E---3---------------------------|---2---------------------------------
[ Tab from: http://www.guitartabs.cc/tabs/l/lillix/promises_tab.html ]
E-----------------3--------------|------------------|---------3-------
B--------3------------3-------3--|---------------3--|------------3----
G-------------------------0------|-----------0------|------2----------
D-------------0------------------|-------2----------|---3-------------
A--------------------------------|---3--------------|-----------------
E---0----------------------------|------------------|-----------------

E-----------------3-------------|------------------3------------------
B--------3------------3-------3-|--------3-------------3--------3-----
G-------------------------0-----|---------------------------0---------
D-------------0-----------------|-------------0-----------------------
A-------------------------------|-------------------------------------
E---3---------------------------|---2---------------------------------

E-----------------3--------------|-----------3---------------3--------
B--------3------------3-------3--|------------------3-------------3---
G-------------------------0------|-----------------------0------------
D-------------0------------------|-------2----------------------------
A--------------------------------|---3--------------------------------
E---0----------------------------|------------------------------------

this is only the intro and the verses. woooo!
Comments