Lillix - Fork In The Road Chords & Tabs

 

Fork In The Road Chords & Tabs

Lillix Chords & Tabs

Version: 1 Type: Tab 0 ratings
1 star 2 stars 3 stars 4 stars 5 stars
comments

Fork In The Road Tab

   
By:Christina blonde_lightning@hotmail.com
-----------------------------------------

Lillix
Fork in the Road

----------------------------------------
listen for the timing and strumming! enjoy!


intro:

577xxx A5
355xxx G5
x244xx C#5


      fill in           
E  :-------------------|----------------|
B  :-------------------|7-------10------|
G  :-6^(7)-4--2--4-----|--7-------------|
D  :-------------------|----------------|
A  :-------------------|----------------|
E  :-------------------|----------------|  x2


Verse 1:

A5             G5                     C#5
  Day by day I seek the possibilities


A5                 G5                        C#5
  Searchin for the one and only thing that I lack


Pre-chorus:

x577xx Look at the hourglass count-
x466xx down, a decision i should cast
x577xx let the mind race, at a fast pace

     x799xx  take me to
 x8-10-10xx  another
x10-12-12xx  place


Chorus:

688xxx Lost and found again
x688xx right be-
x577xx fore the  
x355xx fork in
x577xx the

688xxx (road) I start then begin
x688xx right be-
x577xx fore the  
x355xx fork in
x577xx the


688xxx (road) I split apart in two
x688xx never 
x577xx to 
x355xx discover
x577xx you

688xxx I carry this giant load
x688xx left me
x577xx before the  
x355xx fork in
x577xx the road


      fill in           
E  :-------------------|----------------|
B  :-------------------|7-------10------|
G  :-6^(7)-4--2--4-----|--7-------------|
D  :-------------------|----------------|
A  :-------------------|----------------|
E  :-------------------|----------------|


Verse 2:

"stop!"

  G5                           C#5
I believe the day is dawning before the truth- no hint, no clue, who knows what to do
[ Tab from: http://www.guitartabs.cc/tabs/l/lillix/fork_in_the_road_tab.html ]
A5                 G5                            C#5
   green again and time to chase those feelings away


Pre-chorus:

x577xx Look at the hourglass count-
x466xx down, a decision i should cast
x577xx let the mind race, at a fast pace

     x799xx  take me to
 x8-10-10xx  another
x10-12-12xx  place


Chorus:

688xxx Lost and found again
x688xx right be-
x577xx fore the  
x355xx fork in
x577xx the

688xxx (road) I start then begin
x688xx right be-
x577xx fore the  
x355xx fork in
x577xx the


688xxx (road) I split apart in two
x688xx never 
x577xx to 
x355xx discover
x577xx you

688xxx I carry this giant load
x688xx left me
x577xx before the  
x355xx fork in
x577xx the road


Bridge:
 
A5 577xxx
Time's tickin you must make up your mind

x57775 Yes I will!!
x57765 Yes I will!!

A5 577xxx
The moment is gone without a thrill

x57775 Yes I will!!
x57765 Yes I will!!


Solo:

E  :--------------------|-----------------|-----------------|
B  :--------------------|-----------------|-----------------|
G  :9--6------6^7^6^7^6-|-----------------|--9-6-----6-7-9--|
D  :------7-7-----------|7-9-9-11---------|------7-7--------|
A  :--------------------|---------9-------|-----------------|
E  :--------------------|-----------------|-----------------|

E  :------------7--10-14-|17---------------|
B  :--7^(8)-5-7----------|-----------------|
G  :---------------------|-----------------|
D  :---------------------|-----------------|
A  :---------------------|-----------------|
E  :---------------------|-----------------|


Chorus:

688xxx Lost and found again
x688xx right be-
x577xx fore the  
x355xx fork in
x577xx the

688xxx (road) I start then begin
x688xx right be-
x577xx fore the  
x355xx fork in
x577xx the


688xxx (road) I split apart in two
x688xx never 
x577xx to 
x355xx discover
x577xx you

688xxx I carry this giant load
x688xx left me
x577xx before the  
x355xx fork in
x577xx the road
Comments