Lil Jon And The East Side Boys - Lovers And Friends Chords & Tabs

 

Lovers And Friends Chords & Tabs

Lil Jon And The East Side Boys Chords & Tabs

Version: 2 Type: Tab 0 ratings
1 star 2 stars 3 stars 4 stars 5 stars
comments

Lovers And Friends Tab

Lil Jon - Lovers and friends

Just the melody on the song.

Tabbed by:raidlink


Tuning:
[ Tab from: http://www.guitartabs.cc/tabs/l/lil_jon_and_the_east_side_boys/lovers_and_friends_tab_ver_2.html ]
e|-------------------------------------------------|
B|------8----------------------6-------------------|
G|---7-----7---5---2--2--3--5-----7----------------|
D|-------------------------------------------------|
A|-------------------------------------------------|
E|-------------------------------------------------|

e|-------------------------------------------------|
B|--------------------8---------------------6------|
G|----3--3--5---7--7-----7--5---2---2--3--5-----7--|
D|-------------------------------------------------|
A|-------------------------------------------------|
E|-------------------------------------------------|

Its just repeated through out the song.
Comments