Lil Jon And The East Side Boys - Lets Go Chords & Tabs

 

Lets Go Chords & Tabs

Lil Jon And The East Side Boys Chords & Tabs

Version: 1 Type: Tab 0 ratings
1 star 2 stars 3 stars 4 stars 5 stars
comments

Lets Go Tab

Tabs Founded By Nick Ramirez.
Date 12/28/08
 Lets go!

         e--------------------------------------------------------|
         B--------------------------------------------------------|
         G-----------------------------10-10----------------------|
         D--7-7--10-10--5-5-x3---7-7---10-10-5-5------------------|
         A--7-7--10-10--5-5------7-7---8--8--5-5------------------|
         E--5-5--8--8---3-3------5-5---------3-3------------------|
[ Tab from: http://www.guitartabs.cc/tabs/l/lil_jon_and_the_east_side_boys/lets_go_tab.html ]
solo>|-----------------------------------------------------------|
|----------------------------------------------------------------|
|----------------------------------------------------------------|
|----------------------------------------------------------------|
|-----4---5---4---2-0---0-2-0---------4---5---4---2-0---0-2------|
|-2-2---2---2---2-----4-------4-0-2-2---2---2---2-----4----------|

|----------------------------------------------------------|
|----------------------------------------------------------|
|----------------------------------------------------------|
|----------------------------------------------------------|
|-0---------4---5---4---2-0---0-2-0---------4---5---4------|
|---4-0-2-2---2---2---2-----4-------4-0-2-2---2---2---2----|


These are my First tabs. If you are haveing trouble take a look at the Crazy Train 
The song about the same as that song.
Comments